  0
SECTION
  2
HEADER
  9
$ACADVER
  1
AC1015
  9
$ACADMAINTVER
 70
    20
  9
$DWGCODEPAGE
  3
ANSI_932
  9
$INSBASE
 10
0.0
 20
0.0
 30
0.0
  9
$EXTMIN
 10
0.0000217337974391
 20
0.0000126002503294
 30
0.0
  9
$EXTMAX
 10
594.0000217337973
 20
420.0000917809932
 30
0.0
  9
$LIMMIN
 10
0.0
 20
0.0
  9
$LIMMAX
 10
1188.0
 20
840.0
  9
$ORTHOMODE
 70
     1
  9
$REGENMODE
 70
     1
  9
$FILLMODE
 70
     1
  9
$QTEXTMODE
 70
     0
  9
$MIRRTEXT
 70
     0
  9
$LTSCALE
 40
2.0
  9
$ATTMODE
 70
     1
  9
$TEXTSIZE
 40
8.0
  9
$TRACEWID
 40
0.05
  9
$TEXTSTYLE
  7
STANDARD
  9
$CLAYER
  8
0
  9
$CELTYPE
  6
CONTINUOUS
  9
$CECOLOR
 62
   256
  9
$CELTSCALE
 40
1.0
  9
$DISPSILH
 70
     0
  9
$DIMSCALE
 40
1.0
  9
$DIMASZ
 40
1.3
  9
$DIMEXO
 40
3.0
  9
$DIMDLI
 40
10.0
  9
$DIMRND
 40
0.0
  9
$DIMDLE
 40
0.0
  9
$DIMEXE
 40
1.0
  9
$DIMTP
 40
0.1
  9
$DIMTM
 40
0.1
  9
$DIMTXT
 40
4.0
  9
$DIMCEN
 40
0.0
  9
$DIMTSZ
 40
0.0
  9
$DIMTOL
 70
     0
  9
$DIMLIM
 70
     0
  9
$DIMTIH
 70
     0
  9
$DIMTOH
 70
     0
  9
$DIMSE1
 70
     0
  9
$DIMSE2
 70
     0
  9
$DIMTAD
 70
     3
  9
$DIMZIN
 70
     8
  9
$DIMBLK
  1
DOT
  9
$DIMASO
 70
     1
  9
$DIMSHO
 70
     1
  9
$DIMPOST
  1

  9
$DIMAPOST
  1
"
  9
$DIMALT
 70
     0
  9
$DIMALTD
 70
     2
  9
$DIMALTF
 40
0.0393701
  9
$DIMLFAC
 40
1.0
  9
$DIMTOFL
 70
     1
  9
$DIMTVP
 40
0.0
  9
$DIMTIX
 70
     0
  9
$DIMSOXD
 70
     0
  9
$DIMSAH
 70
     0
  9
$DIMBLK1
  1

  9
$DIMBLK2
  1

  9
$DIMSTYLE
  2
OSAMARI_標準
  9
$DIMCLRD
 70
   143
  9
$DIMCLRE
 70
   143
  9
$DIMCLRT
 70
     7
  9
$DIMTFAC
 40
0.71
  9
$DIMGAP
 40
1.5
  9
$DIMJUST
 70
     0
  9
$DIMSD1
 70
     0
  9
$DIMSD2
 70
     0
  9
$DIMTOLJ
 70
     0
  9
$DIMTZIN
 70
     8
  9
$DIMALTZ
 70
     0
  9
$DIMALTTZ
 70
     0
  9
$DIMUPT
 70
     0
  9
$DIMDEC
 70
     2
  9
$DIMTDEC
 70
     2
  9
$DIMALTU
 70
     2
  9
$DIMALTTD
 70
     2
  9
$DIMTXSTY
  7
ｺﾞｼｯｸ
  9
$DIMAUNIT
 70
     0
  9
$DIMADEC
 70
     1
  9
$DIMALTRND
 40
0.0
  9
$DIMAZIN
 70
     2
  9
$DIMDSEP
 70
    46
  9
$DIMATFIT
 70
     3
  9
$DIMFRAC
 70
     0
  9
$DIMLDRBLK
  1
Open30
  9
$DIMLUNIT
 70
     2
  9
$DIMLWD
 70
    -1
  9
$DIMLWE
 70
    -1
  9
$DIMTMOVE
 70
     0
  9
$LUNITS
 70
     2
  9
$LUPREC
 70
     4
  9
$SKETCHINC
 40
0.1
  9
$FILLETRAD
 40
0.0
  9
$AUNITS
 70
     0
  9
$AUPREC
 70
     0
  9
$MENU
  1
.
  9
$ELEVATION
 40
0.0
  9
$PELEVATION
 40
0.0
  9
$THICKNESS
 40
0.0
  9
$LIMCHECK
 70
     0
  9
$CHAMFERA
 40
0.0
  9
$CHAMFERB
 40
0.0
  9
$CHAMFERC
 40
0.0
  9
$CHAMFERD
 40
0.0
  9
$SKPOLY
 70
     0
  9
$TDCREATE
 40
2454050.791736829
  9
$TDUCREATE
 40
2454050.416736829
  9
$TDUPDATE
 40
2454179.574058519
  9
$TDUUPDATE
 40
2454179.199058519
  9
$TDINDWG
 40
0.2461406134
  9
$TDUSRTIMER
 40
0.2461402546
  9
$USRTIMER
 70
     1
  9
$ANGBASE
 50
0.0
  9
$ANGDIR
 70
     0
  9
$PDMODE
 70
     0
  9
$PDSIZE
 40
0.0
  9
$PLINEWID
 40
0.0
  9
$SPLFRAME
 70
     0
  9
$SPLINETYPE
 70
     6
  9
$SPLINESEGS
 70
     8
  9
$HANDSEED
  5
D923
  9
$SURFTAB1
 70
     6
  9
$SURFTAB2
 70
     6
  9
$SURFTYPE
 70
     6
  9
$SURFU
 70
     6
  9
$SURFV
 70
     6
  9
$UCSBASE
  2

  9
$UCSNAME
  2

  9
$UCSORG
 10
0.0
 20
0.0
 30
0.0
  9
$UCSXDIR
 10
1.0
 20
0.0
 30
0.0
  9
$UCSYDIR
 10
0.0
 20
1.0
 30
0.0
  9
$UCSORTHOREF
  2

  9
$UCSORTHOVIEW
 70
     0
  9
$UCSORGTOP
 10
0.0
 20
0.0
 30
0.0
  9
$UCSORGBOTTOM
 10
0.0
 20
0.0
 30
0.0
  9
$UCSORGLEFT
 10
0.0
 20
0.0
 30
0.0
  9
$UCSORGRIGHT
 10
0.0
 20
0.0
 30
0.0
  9
$UCSORGFRONT
 10
0.0
 20
0.0
 30
0.0
  9
$UCSORGBACK
 10
0.0
 20
0.0
 30
0.0
  9
$PUCSBASE
  2

  9
$PUCSNAME
  2

  9
$PUCSORG
 10
0.0
 20
0.0
 30
0.0
  9
$PUCSXDIR
 10
1.0
 20
0.0
 30
0.0
  9
$PUCSYDIR
 10
0.0
 20
1.0
 30
0.0
  9
$PUCSORTHOREF
  2

  9
$PUCSORTHOVIEW
 70
     0
  9
$PUCSORGTOP
 10
0.0
 20
0.0
 30
0.0
  9
$PUCSORGBOTTOM
 10
0.0
 20
0.0
 30
0.0
  9
$PUCSORGLEFT
 10
0.0
 20
0.0
 30
0.0
  9
$PUCSORGRIGHT
 10
0.0
 20
0.0
 30
0.0
  9
$PUCSORGFRONT
 10
0.0
 20
0.0
 30
0.0
  9
$PUCSORGBACK
 10
0.0
 20
0.0
 30
0.0
  9
$USERI1
 70
     0
  9
$USERI2
 70
     0
  9
$USERI3
 70
     0
  9
$USERI4
 70
     0
  9
$USERI5
 70
     0
  9
$USERR1
 40
0.0
  9
$USERR2
 40
0.0
  9
$USERR3
 40
0.0
  9
$USERR4
 40
0.0
  9
$USERR5
 40
0.0
  9
$WORLDVIEW
 70
     1
  9
$SHADEDGE
 70
     3
  9
$SHADEDIF
 70
    70
  9
$TILEMODE
 70
     1
  9
$MAXACTVP
 70
    64
  9
$PINSBASE
 10
0.0
 20
0.0
 30
0.0
  9
$PLIMCHECK
 70
     0
  9
$PEXTMIN
 10
1.000000000000000E+20
 20
1.000000000000000E+20
 30
1.000000000000000E+20
  9
$PEXTMAX
 10
-1.000000000000000E+20
 20
-1.000000000000000E+20
 30
-1.000000000000000E+20
  9
$PLIMMIN
 10
-0.2312499519408218
 20
-0.2312499894870548
  9
$PLIMMAX
 10
11.45874984621063
 20
8.035416452903447
  9
$UNITMODE
 70
     0
  9
$VISRETAIN
 70
     1
  9
$PLINEGEN
 70
     0
  9
$PSLTSCALE
 70
     1
  9
$TREEDEPTH
 70
  3020
  9
$CMLSTYLE
  2
Standard
  9
$CMLJUST
 70
     0
  9
$CMLSCALE
 40
1.0
  9
$PROXYGRAPHICS
 70
     1
  9
$MEASUREMENT
 70
     0
  9
$CELWEIGHT
370
    -1
  9
$ENDCAPS
280
     0
  9
$JOINSTYLE
280
     0
  9
$LWDISPLAY
290
     0
  9
$INSUNITS
 70
     0
  9
$HYPERLINKBASE
  1

  9
$STYLESHEET
  1

  9
$XEDIT
290
     1
  9
$CEPSNTYPE
380
     0
  9
$PSTYLEMODE
290
     1
  9
$FINGERPRINTGUID
  2
{DEA30AA0-C04A-4661-BDFF-16F46FEDDB7A}
  9
$VERSIONGUID
  2
{BF8FA67E-2F97-40DF-9EEF-F1BC83F79056}
  9
$EXTNAMES
290
     1
  9
$PSVPSCALE
 40
0.0
  9
$OLESTARTUP
290
     0
  0
ENDSEC
  0
SECTION
  2
CLASSES
  0
CLASS
  1
ACDBDICTIONARYWDFLT
  2
AcDbDictionaryWithDefault
  3
ObjectDBX Classes
 90
        0
280
     0
281
     0
  0
CLASS
  1
MATERIAL
  2
AcDbMaterial
  3
ObjectDBX Classes
 90
     1153
280
     0
281
     0
  0
CLASS
  1
VISUALSTYLE
  2
AcDbVisualStyle
  3
ObjectDBX Classes
 90
     4095
280
     0
281
     0
  0
CLASS
  1
TABLESTYLE
  2
AcDbTableStyle
  3
ObjectDBX Classes
 90
     4095
280
     0
281
     0
  0
CLASS
  1
AMGSETTINGSOBJ
  2
AmgSettingsObj
  3
"AcadM|Product Description: AutoCAD Mechanical|Company: Autodesk"
 90
        0
280
     0
281
     0
  0
CLASS
  1
ACME_DOCUMENT
  2
AcMeDbDoc
  3
AcMeServices
 90
        0
280
     0
281
     0
  0
CLASS
  1
ACMESCOPE
  2
AcMeScope
  3
AcMeServices
 90
        0
280
     0
281
     0
  0
CLASS
  1
ACMECOMMANDHISTORY
  2
AcMeCommandHistory
  3
AcMeServices
 90
        0
280
     0
281
     0
  0
CLASS
  1
ACIMSYSVARMAN
  2
AcImSysVarManager
  3
AcMeServices
 90
        0
280
     0
281
     0
  0
CLASS
  1
ACIMINTSYSVAR
  2
AcImIntSysVar
  3
AcMeServices
 90
        0
280
     0
281
     0
  0
CLASS
  1
ACMEDRAWINGMAN
  2
AcMeDrawingMan
  3
AcMeServices
 90
        0
280
     0
281
     0
  0
CLASS
  1
ACMEVIEW
  2
AcMeView
  3
AcMeServices
 90
        0
280
     0
281
     0
  0
CLASS
  1
ACDBENTITYCACHE
  2
AcMeEntityCache
  3
AcMeServices
 90
        0
280
     0
281
     0
  0
CLASS
  1
GSMANAGER
  2
AcMeGSManager
  3
AcMeServices
 90
        0
280
     0
281
     0
  0
CLASS
  1
AMDTINTERNALREACTOR
  2
AmdtInternalReactor
  3
AcMeServices
 90
        0
280
     0
281
     0
  0
CLASS
  1
ACMESTATEMGR
  2
AcMeStateMgr
  3
AcMeServices
 90
        0
280
     0
281
     0
  0
CLASS
  1
ACGREFMASTER
  2
AcGrefMaster
  3
AcAttribServices
 90
        0
280
     0
281
     0
  0
CLASS
  1
AM_DRAWING_MGR
  2
AcDmDwgMgr
  3
AcMechDwgViewMgmt
 90
        0
280
     0
281
     0
  0
CLASS
  1
AM_DWG_DOCUMENT
  2
AcDmDwgDocument
  3
AcMechDwgViewMgmt
 90
        0
280
     0
281
     0
  0
CLASS
  1
AM_DWG_SHEET
  2
AcDmSheet
  3
AcMechDwgViewMgmt
 90
        0
280
     0
281
     0
  0
CLASS
  1
AM_VIEWDIMPARMAP
  2
AcDmViewDimParMap
  3
AcMechDwgViewMgmt
 90
        0
280
     0
281
     0
  0
CLASS
  1
ACIMREALSYSVAR
  2
AcImRealSysVar
  3
AcMeServices
 90
        0
280
     0
281
     0
  0
CLASS
  1
AM_DWGMGR_NAME
  2
AcDmDwgMgrName
  3
AcMechDwgViewMgmt
 90
        0
280
     0
281
     0
  0
CLASS
  1
ACME_DATABASE
  2
AcMeDbDatabase
  3
AcMeServices
 90
        0
280
     0
281
     0
  0
CLASS
  1
ACRFINSADJUSTERMGR
  2
AcRfInsAdjusterMgr
  3
AcMeServices
 90
        0
280
     0
281
     0
  0
CLASS
  1
ACGREFACADMASTER
  2
AcGrefacadMaster
  3
AcGrefServices
 90
        0
280
     0
281
     0
  0
CLASS
  1
AMDTMENUSTATEMGR
  2
AmdtMenuStateMgr
  3
McadcomServices
 90
        0
280
     0
281
     0
  0
CLASS
  1
AMDTMCOMMENUSTATE
  2
AmdtMcomMenuState
  3
McadcomServices
 90
        0
280
     0
281
     0
  0
CLASS
  1
AMIMASTER
  2
AmiMaster
  3
AmiServices
 90
        0
280
     0
281
     0
  0
CLASS
  1
MAPIAMMOUDLE
  2
MApiAmModule
  3
MApiAmServices
 90
        0
280
     0
281
     0
  0
CLASS
  1
ACIMSTRSYSVAR
  2
AcImStrSysVar
  3
AcMeServices
 90
        0
280
     0
281
     0
  0
CLASS
  1
AMDTADMENUSTATE
  2
AmdtAdMenuState
  3
DesignerServices
 90
        0
280
     0
281
     0
  0
CLASS
  1
ADAPPL
  2
AcAdAppl
  3
DesignerServices
 90
        0
280
     0
281
     0
  0
CLASS
  1
DEPMGR
  2
AcAdDepMgr
  3
DesignerServices
 90
        0
280
     0
281
     0
  0
CLASS
  1
PARAMMGR
  2
AcAdParamMgr
  3
DesignerServices
 90
        0
280
     0
281
     0
  0
CLASS
  1
PARAMSCOPE
  2
AcAdParamScope
  3
DesignerServices
 90
        0
280
     0
281
     0
  0
CLASS
  1
NAMEDAPPL
  2
AcAdNamedAppl
  3
DesignerServices
 90
        0
280
     0
281
     0
  0
CLASS
  1
AMDTDMMENUSTATE
  2
AmdtDmMenuState
  3
AcMechDwgViewMgmt
 90
        0
280
     0
281
     0
  0
CLASS
  1
AMDTAMMENUSTATE
  2
AmdtAmMenuState
  3
DesignerAssemblies
 90
        0
280
     0
281
     0
  0
CLASS
  1
ACAMPROJECT
  2
AcAmProject
  3
DesignerAssemblies
 90
        0
280
     0
281
     0
  0
CLASS
  1
ACAMGRCOMPDEF
  2
AcAmGrCompDef
  3
DesignerAssemblies
 90
        0
280
     0
281
     0
  0
CLASS
  1
ACCMCONTEXT
  2
AcCmContext
  3
DesignerAssemblies
 90
        0
280
     0
281
     0
  0
CLASS
  1
ACAMCOMPDEF
  2
AcAmCompDef
  3
DesignerAssemblies
 90
        0
280
     0
281
     0
  0
CLASS
  1
ACAMCOMPDEFMGR
  2
AcAmCompDefMgr
  3
DesignerAssemblies
 90
        0
280
     0
281
     0
  0
CLASS
  1
AMCONTEXTMGR
  2
AcAmContextMgr
  3
DesignerAssemblies
 90
        0
280
     0
281
     0
  0
CLASS
  1
ACAMCONTEXTMODELER
  2
AcAmContextModeler
  3
DesignerAssemblies
 90
        0
280
     0
281
     0
  0
CLASS
  1
ACMDATADICTIONARY
  2
AcmDataDictionary
  3
"AcmSymBB|Product Description: AutoCAD Mechanical|Company: Autodesk"
 90
        0
280
     0
281
     0
  0
CLASS
  1
CATALOGSTATE
  2
AcAmCatalogState
  3
DesignerAssemblies
 90
        0
280
     0
281
     0
  0
CLASS
  1
ACAMGRCOMPDEFSET
  2
AcAmGrCompDefSet
  3
DesignerAssemblies
 90
        0
280
     0
281
     0
  0
CLASS
  1
AMDTBROWSERDBTAB
  2
AmdtBrowserDbTab
  3
McadcomServices
 90
        0
280
     0
281
     0
  0
CLASS
  1
CBROWSERAPPOBJECT
  2
CBrowserAppObject
  3
McadcomServices
 90
        0
280
     0
281
     0
  0
CLASS
  1
DM_PLACEHOLDER
  2
AcDmSelsetPlaceholder
  3
AcMechDwgViewMgmt
 90
        0
280
     0
281
     0
  0
CLASS
  1
ACMSTANDARDANSI
  2
AcmStandardANSI
  3
"Amdt_StdImp|Product Description: AutoCAD Mechanical|Company: Autodesk"
 90
        0
280
     0
281
     0
  0
CLASS
  1
AMGOBJPROPCFG
  2
AmgObjPropCfg
  3
"AmgLay|Product Description: AutoCAD Mechanical|Company: Autodesk"
 90
        1
280
     0
281
     0
  0
CLASS
  1
ACMSURFSTANDARDANSI
  2
AcmSurfTextStdANSI
  3
"Amdt_StdImp|Product Description: AutoCAD Mechanical|Company: Autodesk"
 90
        0
280
     0
281
     0
  0
CLASS
  1
ACMFCFSTANDARDANSI
  2
AcmFCFStdANSI
  3
"Amdt_StdImp|Product Description: AutoCAD Mechanical|Company: Autodesk"
 90
        0
280
     0
281
     0
  0
CLASS
  1
ACMWELDSTANDARDANSI
  2
AcmWeldingStdANSI
  3
"Amdt_StdImp|Product Description: AutoCAD Mechanical|Company: Autodesk"
 90
        0
280
     0
281
     0
  0
CLASS
  1
ACMIDSTANDARDANSI
  2
AcmIdStdANSI
  3
"Amdt_StdImp|Product Description: AutoCAD Mechanical|Company: Autodesk"
 90
        0
280
     0
281
     0
  0
CLASS
  1
ACMDATUMSTANDARDANSI
  2
AcmDatumStdANSI
  3
"Amdt_StdImp|Product Description: AutoCAD Mechanical|Company: Autodesk"
 90
        0
280
     0
281
     0
  0
CLASS
  1
ACMBOMSTANDARDANSI
  2
AcmBOMStdANSI
  3
"Amdt_StdImp|Product Description: AutoCAD Mechanical|Company: Autodesk"
 90
        0
280
     0
281
     0
  0
CLASS
  1
ACMDETAILSTANDARDANSI
  2
AmdtDetailSymStdANSI
  3
"Amdt_StdImp|Product Description: AutoCAD Mechanical|Company: Autodesk"
 90
        0
280
     0
281
     0
  0
CLASS
  1
ACMSECTIONSTANDARDANSI
  2
AmdtSectionSymStdANSI
  3
"Amdt_StdImp|Product Description: AutoCAD Mechanical|Company: Autodesk"
 90
        0
280
     0
281
     0
  0
CLASS
  1
ACMCENTERLINESTANDARDANSI
  2
AmdtCenterLineStdANSI
  3
"Amdt_StdImp|Product Description: AutoCAD Mechanical|Company: Autodesk"
 90
        0
280
     0
281
     0
  0
CLASS
  1
ACMTHREADLINESTANDARDANSI
  2
AmdtThreadLineStdANSI
  3
"Amdt_StdImp|Product Description: AutoCAD Mechanical|Company: Autodesk"
 90
        0
280
     0
281
     0
  0
CLASS
  1
ACMNOTESTANDARDANSI
  2
AmdtNoteStdANSI
  3
"Amdt_StdImp|Product Description: AutoCAD Mechanical|Company: Autodesk"
 90
        0
280
     0
281
     0
  0
CLASS
  1
ACMTAPERSTANDARDANSI
  2
AcmTaperStdANSI
  3
"Amdt_StdImp|Product Description: AutoCAD Mechanical|Company: Autodesk"
 90
        0
280
     0
281
     0
  0
CLASS
  1
AMDTNOTETEMPLATEDB
  2
AmdtNoteTemplateDB
  3
AMDT_STDIMP_MODULE_NAME
 90
        0
280
     0
281
     0
  0
CLASS
  1
ACAMGLAYSTD
  2
AcAmgLayStd
  3
"AmgLay|Product Description: AutoCAD Mechanical|Company: Autodesk"
 90
        0
280
     0
281
     0
  0
CLASS
  1
ACAMGDIMSTD
  2
AcAmgDimStd
  3
"AmgDim|Product Description: AutoCAD Mechanical|Company: Autodesk"
 90
        0
280
     0
281
     0
  0
CLASS
  1
ACAMGHOLECHARTSTDANSI
  2
AcAmgHoleChartStdANSI
  3
ACMSYMBB_MODULE_NAME
 90
        0
280
     0
281
     0
  0
CLASS
  1
ACAMGTITLESTD
  2
AcAmgTitleStd
  3
"AmgTitle|Product Description: AutoCAD Mechanical|Company: Autodesk"
 90
        0
280
     0
281
     0
  0
CLASS
  1
ACAMGFILTERDAT
  2
AcAmgFilterDat
  3
"AcadM|Product Description: AutoCAD Mechanical|Company: Autodesk"
 90
    32768
280
     0
281
     0
  0
CLASS
  1
IMAGEDEF
  2
AcDbRasterImageDef
  3
ISM
 90
        0
280
     0
281
     0
  0
CLASS
  1
DICTIONARYVAR
  2
AcDbDictionaryVar
  3
ObjectDBX Classes
 90
        0
280
     0
281
     0
  0
CLASS
  1
SORTENTSTABLE
  2
AcDbSortentsTable
  3
ObjectDBX Classes
 90
        0
280
     0
281
     0
  0
CLASS
  1
ACDBPLACEHOLDER
  2
AcDbPlaceHolder
  3
ObjectDBX Classes
 90
        0
280
     0
281
     0
  0
CLASS
  1
LAYOUT
  2
AcDbLayout
  3
ObjectDBX Classes
 90
        0
280
     0
281
     0
  0
CLASS
  1
CAMSSTRUCTBTNSTATE
  2
StructBtnState
  3
L"DesignerAssemblies"
 90
    32768
280
     0
281
     0
  0
ENDSEC
  0
SECTION
  2
TABLES
  0
TABLE
  2
VPORT
  5
8
102
{ACAD_XDICTIONARY
360
ABBA
102
}
330
0
100
AcDbSymbolTable
 70
     1
  0
VPORT
  5
6F
330
8
100
AcDbSymbolTableRecord
100
AcDbViewportTableRecord
  2
*Active
 70
     0
 10
0.0
 20
0.0
 11
1.0
 21
1.0
 12
311.3794356211228
 22
206.3165353094154
 13
0.0
 23
0.0
 14
1.0
 24
1.0
 15
0.0
 25
0.0
 16
0.0
 26
0.0
 36
1.0
 17
0.0
 27
0.0
 37
0.0
 40
391.9965656116171
 41
2.124756335282651
 42
50.0
 43
0.0
 44
0.0
 50
0.0
 51
0.0
 71
     0
 72
   100
 73
     1
 74
     1
 75
     0
 76
     0
 77
     0
 78
     0
281
     0
 65
     0
110
0.0
120
0.0
130
0.0
111
1.0
121
0.0
131
0.0
112
0.0
122
1.0
132
0.0
 79
     0
146
0.0
  0
ENDTAB
  0
TABLE
  2
LTYPE
  5
5
330
0
100
AcDbSymbolTable
 70
    16
  0
LTYPE
  5
28
330
5
100
AcDbSymbolTableRecord
100
AcDbLinetypeTableRecord
  2
ByBlock
 70
     0
  3

 72
    65
 73
     0
 40
0.0
  0
LTYPE
  5
29
330
5
100
AcDbSymbolTableRecord
100
AcDbLinetypeTableRecord
  2
ByLayer
 70
     0
  3

 72
    65
 73
     0
 40
0.0
  0
LTYPE
  5
2A
330
5
100
AcDbSymbolTableRecord
100
AcDbLinetypeTableRecord
  2
CONTINUOUS
 70
     0
  3
実線
 72
    65
 73
     0
 40
0.0
  0
LTYPE
  5
3E
330
5
100
AcDbSymbolTableRecord
100
AcDbLinetypeTableRecord
  2
CENTER2
 70
     0
  3
----------  --  ----------  --  
 72
    65
 73
     4
 40
20.0
 49
12.5
 74
     0
 49
-2.5
 74
     0
 49
2.5
 74
     0
 49
-2.5
 74
     0
  0
LTYPE
  5
40
330
5
100
AcDbSymbolTableRecord
100
AcDbLinetypeTableRecord
  2
PHANTOM2
 70
     0
  3
--------  -  -  --------  -  -  
 72
    65
 73
     6
 40
20.0
 49
10.0
 74
     0
 49
-2.5
 74
     0
 49
1.25
 74
     0
 49
-2.5
 74
     0
 49
1.25
 74
     0
 49
-2.5
 74
     0
  0
LTYPE
  5
A941
330
5
100
AcDbSymbolTableRecord
100
AcDbLinetypeTableRecord
  2
HIDDEN
 70
     0
  3
Hidden __ __ __ __ __ __ __ __ __ __ __ __ __ _
 72
    65
 73
     2
 40
0.375
 49
0.25
 74
     0
 49
-0.125
 74
     0
  0
LTYPE
  5
A942
330
5
100
AcDbSymbolTableRecord
100
AcDbLinetypeTableRecord
  2
CENTER
 70
     0
  3
Center ____ _ ____ _ ____ _ ____ _ ____ _ ____
 72
    65
 73
     4
 40
2.0
 49
1.25
 74
     0
 49
-0.25
 74
     0
 49
0.25
 74
     0
 49
-0.25
 74
     0
  0
LTYPE
  5
A97A
330
5
100
AcDbSymbolTableRecord
100
AcDbLinetypeTableRecord
  2
Amconstr
 70
     0
  3
_______________________
 72
    65
 73
     2
 40
9999.0
 49
9999.0
 74
     0
 49
0.0
 74
     0
  0
LTYPE
  5
A980
330
5
100
AcDbSymbolTableRecord
100
AcDbLinetypeTableRecord
  2
HIDDEN2
 70
     0
  3
Hidden (.5x) _ _ _ _ _ _ _ _ _ _ _ _ _ _ _ _ _
 72
    65
 73
     2
 40
0.1875
 49
0.125
 74
     0
 49
-0.0625
 74
     0
  0
LTYPE
  5
A981
330
5
100
AcDbSymbolTableRecord
100
AcDbLinetypeTableRecord
  2
Amzigzag2
 70
     0
  3
/\/-/\/-/\/-/\/-/\/-/\/
 72
    65
 73
     2
 40
0.4401
 49
0.0001
 74
     4
 75
   136
340
A97E
 46
0.0016
 50
0.0
 44
0.0
 45
0.0
 49
-0.4400000000000003
 74
     0
  0
LTYPE
  5
A990
330
5
100
AcDbSymbolTableRecord
100
AcDbLinetypeTableRecord
  2
ACANSTGB
 70
     0
  3
__ . . __ . .
 72
    65
 73
     6
 40
0.35433070866
 49
0.15748031496
 74
     0
 49
-0.03937007874
 74
     0
 49
0.03937007874
 74
     0
 49
-0.03937007874
 74
     0
 49
0.03937007874
 74
     0
 49
-0.03937007874
 74
     0
  0
LTYPE
  5
A991
330
5
100
AcDbSymbolTableRecord
100
AcDbLinetypeTableRecord
  2
ACANSTGL
 70
     0
  3
_ _ _ _ _
 72
    65
 73
     2
 40
0.11811023622
 49
0.07874015748
 74
     0
 49
-0.03937007874
 74
     0
  0
LTYPE
  5
D8F7
330
5
100
AcDbSymbolTableRecord
100
AcDbLinetypeTableRecord
  2
AM_ISO02W050
 70
     0
  3
__ __ __ __ __ __ __ __ __ __ __ __ __ __ __
 72
    65
 73
     2
 40
7.5
 49
6.0
 74
     0
 49
-1.5
 74
     0
  0
LTYPE
  5
D8F8
330
5
100
AcDbSymbolTableRecord
100
AcDbLinetypeTableRecord
  2
AM_ISO08W050
 70
     0
  3
____ . ____ . ____ . ____ . ____ . ____ . ____
 72
    65
 73
     4
 40
18.0
 49
12.0
 74
     0
 49
-1.5
 74
     0
 49
3.0
 74
     0
 49
-1.5
 74
     0
  0
LTYPE
  5
D8F9
330
5
100
AcDbSymbolTableRecord
100
AcDbLinetypeTableRecord
  2
AM_ISO09W050
 70
     0
  3
_____ . . _____ . . _____ . . ____ .. ____
 72
    65
 73
     6
 40
22.5
 49
12.0
 74
     0
 49
-1.5
 74
     0
 49
3.0
 74
     0
 49
-1.5
 74
     0
 49
3.0
 74
     0
 49
-1.5
 74
     0
  0
LTYPE
  5
D8FA
330
5
100
AcDbSymbolTableRecord
100
AcDbLinetypeTableRecord
  2
AM_ISO08W050x2
 70
     0
  3
__ . __ . __ . __ . __ . __
 72
    65
 73
     4
 40
9.0
 49
6.0
 74
     0
 49
-0.75
 74
     0
 49
1.5
 74
     0
 49
-0.75
 74
     0
  0
LTYPE
  5
D8FB
330
5
100
AcDbSymbolTableRecord
100
AcDbLinetypeTableRecord
  2
AM_ISO02W050x2
 70
     0
  3
 _ _ _ _ _ _ _ _ _ _ _ _
 72
    65
 73
     2
 40
3.75
 49
3.0
 74
     0
 49
-0.75
 74
     0
  0
LTYPE
  5
D8FC
330
5
100
AcDbSymbolTableRecord
100
AcDbLinetypeTableRecord
  2
Amzigzag
 70
     0
  3
/\/-/\/-/\/-/\/-/\/-/\/
 72
    65
 73
     2
 40
11.0001
 49
0.0001
 74
     4
 75
   136
340
A97E
 46
0.04
 50
0.0
 44
0.0
 45
0.0
 49
-11.0
 74
     0
  0
ENDTAB
  0
TABLE
  2
LAYER
  5
2
102
{ACAD_XDICTIONARY
360
A9F0
102
}
330
0
100
AcDbSymbolTable
 70
    10
  0
LAYER
  5
25
330
2
100
AcDbSymbolTableRecord
100
AcDbLayerTableRecord
  2
0
 70
     0
 62
     7
  6
CONTINUOUS
370
    -3
390
F
  0
LAYER
  5
5E
330
2
100
AcDbSymbolTableRecord
100
AcDbLayerTableRecord
  2
_0-1_部品
 70
     0
 62
     7
  6
CONTINUOUS
370
    -3
390
F
  0
LAYER
  5
5F
330
2
100
AcDbSymbolTableRecord
100
AcDbLayerTableRecord
  2
_0-2_寸法
 70
     0
 62
     7
  6
CONTINUOUS
370
    -3
390
F
  0
LAYER
  5
60
330
2
100
AcDbSymbolTableRecord
100
AcDbLayerTableRecord
  2
_0-3_仕上
 70
     0
 62
     7
  6
CONTINUOUS
370
    -3
390
F
  0
LAYER
  5
62
330
2
100
AcDbSymbolTableRecord
100
AcDbLayerTableRecord
  2
_0-5_その他
 70
     0
 62
     7
  6
CONTINUOUS
370
    -3
390
F
  0
LAYER
  5
AA10
330
2
100
AcDbSymbolTableRecord
100
AcDbLayerTableRecord
  2
Defpoints
 70
     0
 62
     7
  6
CONTINUOUS
290
     0
370
    -3
390
F
  0
LAYER
  5
AA89
330
2
100
AcDbSymbolTableRecord
100
AcDbLayerTableRecord
  2
5C
 70
     0
 62
     7
  6
CONTINUOUS
370
    -3
390
F
  0
LAYER
  5
AB61
330
2
100
AcDbSymbolTableRecord
100
AcDbLayerTableRecord
  2
位置合わせ
 70
     0
 62
     7
  6
CONTINUOUS
290
     0
370
    -3
390
F
1001
AcAecLayerStandard
1000

1000

  0
LAYER
  5
C58D
330
2
100
AcDbSymbolTableRecord
100
AcDbLayerTableRecord
  2
_0-0_型材図
 70
     0
 62
     7
  6
CONTINUOUS
370
    -3
390
F
  0
LAYER
  5
C58E
330
2
100
AcDbSymbolTableRecord
100
AcDbLayerTableRecord
  2
_0-4_建具
 70
     0
 62
     7
  6
CONTINUOUS
370
    -3
390
F
  0
ENDTAB
  0
TABLE
  2
STYLE
  5
3
330
0
100
AcDbSymbolTable
 70
     7
  0
STYLE
  5
26
330
3
100
AcDbSymbolTableRecord
100
AcDbTextStyleTableRecord
  2
STANDARD
 70
     0
 40
0.0
 41
1.0
 50
0.0
 71
     0
 42
8.0
  3
txt
  4
bigfont.shx
  0
STYLE
  5
5C
330
3
100
AcDbSymbolTableRecord
100
AcDbTextStyleTableRecord
  2
TATEGAKI
 70
     4
 40
0.0
 41
1.0
 50
0.0
 71
     0
 42
1.0
  3
txt
  4
bigfont.shx
  0
STYLE
  5
A97E
330
3
100
AcDbSymbolTableRecord
100
AcDbTextStyleTableRecord
  2

 70
     1
 40
0.0
 41
1.0
 50
0.0
 71
     0
 42
0.2
  3
genltshp.shx
  4

  0
STYLE
  5
A982
330
3
100
AcDbSymbolTableRecord
100
AcDbTextStyleTableRecord
  2
ACANSTS
 70
     0
 40
1.0
 41
1.0
 50
0.0
 71
     0
 42
0.2
  3
romans.shx
  4
extfont.shx
  0
STYLE
  5
A98F
330
3
100
AcDbSymbolTableRecord
100
AcDbTextStyleTableRecord
  2
ACANSGDT
 70
     0
 40
0.0
 41
1.0
 50
0.0
 71
     0
 42
0.2
  3
amgdt.shx
  4

  0
STYLE
  5
AA8A
330
3
100
AcDbSymbolTableRecord
100
AcDbTextStyleTableRecord
  2
ｺﾞｼｯｸ
 70
     0
 40
0.0
 41
1.0
 50
0.0
 71
     0
 42
6.019340811650183
  3
MS PGothic.ttf
  4

1001
ACAD
1000
MS PGothic
1071
    32818
  0
STYLE
  5
AD4F
330
3
100
AcDbSymbolTableRecord
100
AcDbTextStyleTableRecord
  2
MS明朝
 70
     0
 40
0.0
 41
1.0
 50
0.0
 71
     0
 42
4.0
  3
MS Mincho.ttf
  4

1001
ACAD
1000
MS Mincho
1071
    32785
  0
ENDTAB
  0
TABLE
  2
VIEW
  5
6
330
0
100
AcDbSymbolTable
 70
     0
  0
ENDTAB
  0
TABLE
  2
UCS
  5
7
330
0
100
AcDbSymbolTable
 70
     0
  0
ENDTAB
  0
TABLE
  2
APPID
  5
9
330
0
100
AcDbSymbolTable
 70
    59
  0
APPID
  5
27
330
9
100
AcDbSymbolTableRecord
100
AcDbRegAppTableRecord
  2
ACAD
 70
     0
  0
APPID
  5
A914
330
9
100
AcDbSymbolTableRecord
100
AcDbRegAppTableRecord
  2
MCAD_NO_VIS
 70
     0
  0
APPID
  5
A915
330
9
100
AcDbSymbolTableRecord
100
AcDbRegAppTableRecord
  2
ACAD_TEMP_GRAPHIC
 70
     0
  0
APPID
  5
A944
330
9
100
AcDbSymbolTableRecord
100
AcDbRegAppTableRecord
  2
AD_DRAW
 70
     0
  0
APPID
  5
A947
330
9
100
AcDbSymbolTableRecord
100
AcDbRegAppTableRecord
  2
ACATTRIBSERVICES
 70
     0
  0
APPID
  5
A968
330
9
100
AcDbSymbolTableRecord
100
AcDbRegAppTableRecord
  2
DESIGNERASSEMBLIES
 70
     0
  0
APPID
  5
A96E
330
9
100
AcDbSymbolTableRecord
100
AcDbRegAppTableRecord
  2
ACADM_DIM_EDIT
 70
     0
  0
APPID
  5
A96F
330
9
100
AcDbSymbolTableRecord
100
AcDbRegAppTableRecord
  2
AMDT_DM_ADJ
 70
     0
  0
APPID
  5
A9EC
330
9
100
AcDbSymbolTableRecord
100
AcDbRegAppTableRecord
  2
GENIUS_GENSCREG_15
 70
     0
  0
APPID
  5
A9ED
330
9
100
AcDbSymbolTableRecord
100
AcDbRegAppTableRecord
  2
GENIUS_GENODEF_13
 70
     0
  0
APPID
  5
A9EE
330
9
100
AcDbSymbolTableRecord
100
AcDbRegAppTableRecord
  2
GENIUS_GENOBJ-N-SDF_13
 70
     0
  0
APPID
  5
A9EF
330
9
100
AcDbSymbolTableRecord
100
AcDbRegAppTableRecord
  2
ACAD_PSEXT
 70
     0
  0
APPID
  5
AA93
330
9
100
AcDbSymbolTableRecord
100
AcDbRegAppTableRecord
  2
GENIUS_GENOREF_13
 70
     0
  0
APPID
  5
AA94
330
9
100
AcDbSymbolTableRecord
100
AcDbRegAppTableRecord
  2
GENIUS_GENSCREG_13
 70
     0
  0
APPID
  5
AA95
330
9
100
AcDbSymbolTableRecord
100
AcDbRegAppTableRecord
  2
GEVID1066736229
 70
     0
  0
APPID
  5
AA96
330
9
100
AcDbSymbolTableRecord
100
AcDbRegAppTableRecord
  2
GEVDC
 70
     0
  0
APPID
  5
AA97
330
9
100
AcDbSymbolTableRecord
100
AcDbRegAppTableRecord
  2
GEVCON
 70
     0
  0
APPID
  5
AA98
330
9
100
AcDbSymbolTableRecord
100
AcDbRegAppTableRecord
  2
GEVID1066736230
 70
     0
  0
APPID
  5
AA99
330
9
100
AcDbSymbolTableRecord
100
AcDbRegAppTableRecord
  2
GENIUS_GENOBJ-N-CEN_13
 70
     0
  0
APPID
  5
AA9A
330
9
100
AcDbSymbolTableRecord
100
AcDbRegAppTableRecord
  2
GEVID1066736231
 70
     0
  0
APPID
  5
AA9B
330
9
100
AcDbSymbolTableRecord
100
AcDbRegAppTableRecord
  2
GENIUS_GENOENT_13
 70
     0
  0
APPID
  5
AA9C
330
9
100
AcDbSymbolTableRecord
100
AcDbRegAppTableRecord
  2
GENIUS_GENOBJ-F-SCPASSM_13
 70
     0
  0
APPID
  5
AA9D
330
9
100
AcDbSymbolTableRecord
100
AcDbRegAppTableRecord
  2
GENIUS_GENOLIS_13
 70
     0
  0
APPID
  5
AA9E
330
9
100
AcDbSymbolTableRecord
100
AcDbRegAppTableRecord
  2
AMG_2DHIDE
 70
     0
  0
APPID
  5
AA9F
330
9
100
AcDbSymbolTableRecord
100
AcDbRegAppTableRecord
  2
AMG_2DSTRUCT_BTR
 70
     0
  0
APPID
  5
AAA0
330
9
100
AcDbSymbolTableRecord
100
AcDbRegAppTableRecord
  2
ACADM_2DVIEW_IGN_NOTIFY
 70
     0
  0
APPID
  5
AAA1
330
9
100
AcDbSymbolTableRecord
100
AcDbRegAppTableRecord
  2
TCODE1
 70
     0
  0
APPID
  5
AAA2
330
9
100
AcDbSymbolTableRecord
100
AcDbRegAppTableRecord
  2
TCODE2
 70
     0
  0
APPID
  5
AAA3
330
9
100
AcDbSymbolTableRecord
100
AcDbRegAppTableRecord
  2
DCO15
 70
     0
  0
APPID
  5
AAA4
330
9
100
AcDbSymbolTableRecord
100
AcDbRegAppTableRecord
  2
GEVID1066736232
 70
     0
  0
APPID
  5
AAA5
330
9
100
AcDbSymbolTableRecord
100
AcDbRegAppTableRecord
  2
GENIUS_GENREC_14
 70
     0
  0
APPID
  5
AAA6
330
9
100
AcDbSymbolTableRecord
100
AcDbRegAppTableRecord
  2
GENIUS_GENOBJ-N-REC_13
 70
     0
  0
APPID
  5
AAA7
330
9
100
AcDbSymbolTableRecord
100
AcDbRegAppTableRecord
  2
GENIUS_GENDTOL_13
 70
     0
  0
APPID
  5
AAA8
330
9
100
AcDbSymbolTableRecord
100
AcDbRegAppTableRecord
  2
GENIUS_GENOBJ-N-DIM_13
 70
     0
  0
APPID
  5
AAA9
330
9
100
AcDbSymbolTableRecord
100
AcDbRegAppTableRecord
  2
GENIUS_GENDIM_13
 70
     0
  0
APPID
  5
AAAA
330
9
100
AcDbSymbolTableRecord
100
AcDbRegAppTableRecord
  2
GENIUS_GENDIMSH_14
 70
     0
  0
APPID
  5
AAAB
330
9
100
AcDbSymbolTableRecord
100
AcDbRegAppTableRecord
  2
GEVID1066736224
 70
     0
  0
APPID
  5
AAAC
330
9
100
AcDbSymbolTableRecord
100
AcDbRegAppTableRecord
  2
GEVID1066736225
 70
     0
  0
APPID
  5
AAAD
330
9
100
AcDbSymbolTableRecord
100
AcDbRegAppTableRecord
  2
GEVID1066736226
 70
     0
  0
APPID
  5
AAAE
330
9
100
AcDbSymbolTableRecord
100
AcDbRegAppTableRecord
  2
GEVID1066736227
 70
     0
  0
APPID
  5
AAAF
330
9
100
AcDbSymbolTableRecord
100
AcDbRegAppTableRecord
  2
GENIUS_GENBLLY_14
 70
     0
  0
APPID
  5
AAB0
330
9
100
AcDbSymbolTableRecord
100
AcDbRegAppTableRecord
  2
GENIUS_GENTRA_14
 70
     0
  0
APPID
  5
AAB1
330
9
100
AcDbSymbolTableRecord
100
AcDbRegAppTableRecord
  2
GENIUS_GENOBJ-N-TIT_13
 70
     0
  0
APPID
  5
AAB2
330
9
100
AcDbSymbolTableRecord
100
AcDbRegAppTableRecord
  2
GENIUS_GENTITLE_13
 70
     0
  0
APPID
  5
AAB3
330
9
100
AcDbSymbolTableRecord
100
AcDbRegAppTableRecord
  2
GENIUS_GENOBJ-N-FIL_13
 70
     0
  0
APPID
  5
AAB4
330
9
100
AcDbSymbolTableRecord
100
AcDbRegAppTableRecord
  2
ACAD_DSTYLE_DIMTEXT_FILL
 70
     0
  0
APPID
  5
AAB5
330
9
100
AcDbSymbolTableRecord
100
AcDbRegAppTableRecord
  2
GENIUS_GENCEN_19
 70
     0
  0
APPID
  5
AAB6
330
9
100
AcDbSymbolTableRecord
100
AcDbRegAppTableRecord
  2
GENIUS_GENOBJ-N-CRS_13
 70
     0
  0
APPID
  5
AAB7
330
9
100
AcDbSymbolTableRecord
100
AcDbRegAppTableRecord
  2
GENIUS_GENOBJ-N-HTC_13
 70
     0
  0
APPID
  5
AAB8
330
9
100
AcDbSymbolTableRecord
100
AcDbRegAppTableRecord
  2
GENIUS_GENHATCH_13
 70
     0
  0
APPID
  5
AAB9
330
9
100
AcDbSymbolTableRecord
100
AcDbRegAppTableRecord
  2
GENIUS_GEFINERT_13
 70
     0
  0
APPID
  5
AABA
330
9
100
AcDbSymbolTableRecord
100
AcDbRegAppTableRecord
  2
GENIUS_GENOBJ-F-INER_13
 70
     0
  0
APPID
  5
AABB
330
9
100
AcDbSymbolTableRecord
100
AcDbRegAppTableRecord
  2
GENIUS_GENFIL_13
 70
     0
  0
APPID
  5
AABC
330
9
100
AcDbSymbolTableRecord
100
AcDbRegAppTableRecord
  2
GENIUS_GENOBJ-N-CHA_13
 70
     0
  0
APPID
  5
AABD
330
9
100
AcDbSymbolTableRecord
100
AcDbRegAppTableRecord
  2
MYHANDLE
 70
     0
  0
APPID
  5
AABE
330
9
100
AcDbSymbolTableRecord
100
AcDbRegAppTableRecord
  2
GROUP
 70
     0
  0
APPID
  5
AABF
330
9
100
AcDbSymbolTableRecord
100
AcDbRegAppTableRecord
  2
GEVID1103006025
 70
     0
  0
APPID
  5
AAC0
330
9
100
AcDbSymbolTableRecord
100
AcDbRegAppTableRecord
  2
AcAecLayerStandard
 70
     0
  0
APPID
  5
ABEA
330
9
100
AcDbSymbolTableRecord
100
AcDbRegAppTableRecord
  2
ACAD_DSTYLE_DIMARC_LENGTH_SYMBOL
 70
     0
  0
ENDTAB
  0
TABLE
  2
DIMSTYLE
  5
A
330
0
100
AcDbSymbolTable
 70
     8
100
AcDbDimStyleTable
 71
     2
340
AA8F
340
A90D
  0
DIMSTYLE
105
A90D
330
A
100
AcDbSymbolTableRecord
100
AcDbDimStyleTableRecord
  2
Standard
 70
     0
340
26
  0
DIMSTYLE
105
A99D
330
A
100
AcDbSymbolTableRecord
100
AcDbDimStyleTableRecord
  2
AM_ANSI
 70
     0
  4
mm
 41
0.1
 42
0.05
 43
0.5
 44
0.1
 47
0.1
 48
0.1
 78
     7
 79
     2
140
0.12
141
0.0
146
0.71
147
0.06
176
   256
177
   256
178
     2
274
     4
284
     7
340
26
371
    -1
372
    -1
1001
ACAD_DSTYLE_DIMARC_LENGTH_SYMBOL
1070
   379
1070
     1
  0
DIMSTYLE
105
A99E
330
A
100
AcDbSymbolTableRecord
100
AcDbDimStyleTableRecord
  2
AM_ANSI$3
 70
     0
  4
mm
 41
0.1
 42
0.05
 43
0.5
 44
0.1
 47
0.1
 48
0.1
 78
     7
 79
     2
140
0.12
141
0.0
146
0.71
147
0.06
176
   256
177
   256
178
     2
274
     4
284
     7
288
     1
289
     0
340
26
371
    -1
372
    -1
1001
ACAD_DSTYLE_DIMARC_LENGTH_SYMBOL
1070
   379
1070
     1
  0
DIMSTYLE
105
A99F
330
A
100
AcDbSymbolTableRecord
100
AcDbDimStyleTableRecord
  2
AM_ANSI$4
 70
     0
  4
mm
 41
0.1
 42
0.05
 43
0.5
 44
0.1
 47
0.1
 48
0.1
 78
     7
 79
     2
140
0.12
141
0.0
146
0.71
147
0.06
176
   256
177
   256
178
     2
274
     4
284
     7
288
     1
289
     0
340
26
371
    -1
372
    -1
1001
ACAD_DSTYLE_DIMARC_LENGTH_SYMBOL
1070
   379
1070
     1
  0
DIMSTYLE
105
A9A0
330
A
100
AcDbSymbolTableRecord
100
AcDbDimStyleTableRecord
  2
AM_ANSI$7
 70
     0
  4
mm
 41
0.1
 42
0.05
 43
0.5
 44
0.1
 47
0.1
 48
0.1
 78
     7
 79
     2
140
0.24
141
0.0
146
0.71
147
0.06
176
   256
177
   256
178
     2
274
     4
284
     7
340
26
371
    -1
372
    -1
1001
ACAD_DSTYLE_DIMARC_LENGTH_SYMBOL
1070
   379
1070
     1
  0
DIMSTYLE
105
A9A1
330
A
100
AcDbSymbolTableRecord
100
AcDbDimStyleTableRecord
  2
AM_ANSI$SF
 70
     0
  4
mm
 41
0.1
 42
0.05
 43
0.5
 44
0.1
 47
0.1
 48
0.1
 75
     1
 76
     1
 78
     7
 79
     2
140
0.12
141
0.0
146
0.71
147
0.06
176
   256
177
   256
178
     2
274
     4
284
     7
340
26
371
    -1
372
    -1
1001
ACAD_DSTYLE_DIMARC_LENGTH_SYMBOL
1070
   379
1070
     1
  0
DIMSTYLE
105
A9A6
330
A
100
AcDbSymbolTableRecord
100
AcDbDimStyleTableRecord
  2
AM_ANSI$SH
 70
     0
  4
mm
 41
0.1
 42
0.05
 43
0.5
 44
0.1
 47
0.1
 48
0.1
 75
     1
 76
     1
 78
     7
 79
     2
140
0.12
141
0.0
146
0.71
147
0.06
173
     1
176
   256
177
   256
178
     2
274
     4
284
     7
340
26
343
A9A2
371
    -1
372
    -1
1001
ACAD_DSTYLE_DIMARC_LENGTH_SYMBOL
1070
   379
1070
     1
  0
DIMSTYLE
105
AA8F
330
A
100
AcDbSymbolTableRecord
100
AcDbDimStyleTableRecord
  2
OSAMARI_標準
 70
     0
  4
"
 41
1.3
 42
3.0
 43
10.0
 44
1.0
 47
0.1
 48
0.1
 73
     0
 74
     0
 77
     3
 78
     8
 79
     2
140
4.0
141
0.0
143
0.0393701
146
0.71
147
1.5
172
     1
176
   143
177
   143
178
     7
179
     1
271
     2
272
     2
283
     0
284
     8
340
AA8A
341
AA7A
342
AA84
371
    -1
372
    -1
  0
ENDTAB
  0
TABLE
  2
BLOCK_RECORD
  5
1
330
0
100
AcDbSymbolTable
 70
     5
  0
BLOCK_RECORD
  5
36
102
{ACAD_XDICTIONARY
360
AE2D
102
}
330
1
100
AcDbSymbolTableRecord
100
AcDbBlockTableRecord
  2
*Model_Space
340
39
  0
BLOCK_RECORD
  5
32
330
1
100
AcDbSymbolTableRecord
100
AcDbBlockTableRecord
  2
*Paper_Space
340
35
  0
BLOCK_RECORD
  5
A9A2
330
1
100
AcDbSymbolTableRecord
100
AcDbBlockTableRecord
  2
GENAXEH
340
0
  0
BLOCK_RECORD
  5
AA7A
330
1
100
AcDbSymbolTableRecord
100
AcDbBlockTableRecord
  2
_Open30
340
0
  0
BLOCK_RECORD
  5
AA84
330
1
100
AcDbSymbolTableRecord
100
AcDbBlockTableRecord
  2
_DOT
340
0
  0
BLOCK_RECORD
  5
B996
330
1
100
AcDbSymbolTableRecord
100
AcDbBlockTableRecord
  2
図枠
340
0
310
2800000020000000200000000100080000000000000400000000000000000000000000000000000000000000000080000080000000808000800000008000800080800000C0C0C000C0DCC000F0CAA6000020400000206000002080000020A0000020C0000020E00000400000004020000040400000406000004080000040A0
310
000040C0000040E00000600000006020000060400000606000006080000060A0000060C0000060E00000800000008020000080400000806000008080000080A0000080C0000080E00000A0000000A0200000A0400000A0600000A0800000A0A00000A0C00000A0E00000C0000000C0200000C0400000C0600000C0800000C0
310
A00000C0C00000C0E00000E0000000E0200000E0400000E0600000E0800000E0A00000E0C00000E0E00040000000400020004000400040006000400080004000A0004000C0004000E00040200000402020004020400040206000402080004020A0004020C0004020E000404000004040200040404000404060004040800040
310
40A0004040C0004040E00040600000406020004060400040606000406080004060A0004060C0004060E00040800000408020004080400040806000408080004080A0004080C0004080E00040A0000040A0200040A0400040A0600040A0800040A0A00040A0C00040A0E00040C0000040C0200040C0400040C0600040C08000
310
40C0A00040C0C00040C0E00040E0000040E0200040E0400040E0600040E0800040E0A00040E0C00040E0E00080000000800020008000400080006000800080008000A0008000C0008000E00080200000802020008020400080206000802080008020A0008020C0008020E00080400000804020008040400080406000804080
310
008040A0008040C0008040E00080600000806020008060400080606000806080008060A0008060C0008060E00080800000808020008080400080806000808080008080A0008080C0008080E00080A0000080A0200080A0400080A0600080A0800080A0A00080A0C00080A0E00080C0000080C0200080C0400080C0600080C0
310
800080C0A00080C0C00080C0E00080E0000080E0200080E0400080E0600080E0800080E0A00080E0C00080E0E000C0000000C0002000C0004000C0006000C0008000C000A000C000C000C000E000C0200000C0202000C0204000C0206000C0208000C020A000C020C000C020E000C0400000C0402000C0404000C0406000C0
310
408000C040A000C040C000C040E000C0600000C0602000C0604000C0606000C0608000C060A000C060C000C060E000C0800000C0802000C0804000C0806000C0808000C080A000C080C000C080E000C0A00000C0A02000C0A04000C0A06000C0A08000C0A0A000C0A0C000C0A0E000C0C00000C0C02000C0C04000C0C06000
310
C0C08000C0C0A000F0FBFF00A4A0A000808080000000FF0000FF000000FFFF00FF000000FF00FF00FFFF0000FFFFFF0000000000000000000000000000000000000000000000000000000000000000000000000000000000000000000000000000000000000000000000000000000000000000000000000000000000000000
310
000000000000000000000000000000000000000000000000000000000000000000000000000000000000000000000000000000000000000000000000000000000000000000000000000000000000000000000000000000000000000000000000000000000000000000000000000000000000FFFFFFFFFFFFFFFFFFFFFFFFFF
310
FFFFFFFFFFFFFFFFFFFFFFFFFFFFFFFFFF0000FFFFFFFFFFFFFFFFFFFFFFFFFFFFFFFFFFFFFFFFFFFFFFFFFFFFFFFFFFFF0000FF00000000000000000000000000000000000000000000000000000000FF0000FF00000000000000000000000000000000000000000000000000000000FF0000FF0000000000000000000000
310
0000000000000000000000000000000000FF0000FF00000000000000000000000000000000000000000000000000000000FF0000FF00000000000000000000000000000000000000000000000000000000FF0000FF00000000000000000000000000000000000000000000000000000000FF0000FF00000000000000000000
310
000000000000000000000000000000000000FF0000FF00000000000000000000000000000000000000000000000000000000FF0000FF00000000000000000000000000000000000000000000000000000000FF0000FF00000000000000000000000000000000000000000000000000000000FF0000FF000000000000000000
310
00000000000000000000000000000000000000FF0000FF00000000000000000000000000000000000000000000000000000000FF0000FF00000000000000000000000000000000000000000000000000000000FF0000FF00000000000000000000000000000000000000000000000000000000FF0000FF0000000000000000
310
0000000000000000000000000000000000000000FF0000FF00000000000000000000000000000000000000000000000000000000FF0000FF00000000000000000000000000000000000000000000000000000000FF0000FFFFFFFFFFFFFFFFFFFFFFFFFFFFFFFFFFFFFFFFFFFFFFFFFFFFFFFFFFFF00000000000000000000
310
00000000000000000000000000000000000000000000000000000000000000000000000000000000000000000000000000000000000000000000000000000000000000000000000000000000000000000000000000000000000000000000000000000000000000000000000000000000000000000000000000000000000000
310
0000000000000000000000000000000000000000000000000000000000000000000000000000000000000000000000000000000000000000
102
{BLKREFS
331
D7B8
102
}
  0
ENDTAB
  0
ENDSEC
  0
SECTION
  2
BLOCKS
  0
BLOCK
  5
37
330
36
100
AcDbEntity
  8
0
100
AcDbBlockBegin
  2
*Model_Space
 70
     0
 10
0.0
 20
0.0
 30
0.0
  3
*Model_Space
  1

  0
ENDBLK
  5
38
330
36
100
AcDbEntity
  8
0
100
AcDbBlockEnd
  0
BLOCK
  5
33
330
32
100
AcDbEntity
 67
     1
  8
0
100
AcDbBlockBegin
  2
*Paper_Space
 70
     0
 10
0.0
 20
0.0
 30
0.0
  3
*Paper_Space
  1

  0
ENDBLK
  5
34
330
32
100
AcDbEntity
 67
     1
  8
0
100
AcDbBlockEnd
  0
BLOCK
  5
A9A4
330
A9A2
100
AcDbEntity
  8
0
100
AcDbBlockBegin
  2
GENAXEH
 70
     0
 10
0.0
 20
0.0
 30
0.0
  3
GENAXEH
  1

  0
LINE
  5
A9A3
330
A9A2
100
AcDbEntity
  8
0
100
AcDbLine
 10
-1.0
 20
0.0
 30
0.0
 11
1.0
 21
0.0
 31
0.0
  0
ENDBLK
  5
A9A5
330
A9A2
100
AcDbEntity
  8
0
100
AcDbBlockEnd
  0
BLOCK
  5
AA7B
330
AA7A
100
AcDbEntity
  8
0
100
AcDbBlockBegin
  2
_Open30
 70
     0
 10
0.0
 20
0.0
 30
0.0
  3
_Open30
  1

  0
LINE
  5
AA7C
330
AA7A
100
AcDbEntity
  8
5C
 62
     0
370
    -2
100
AcDbLine
 10
-1.0
 20
0.26794919
 30
0.0
 11
0.0
 21
0.0
 31
0.0
  0
LINE
  5
AA7D
330
AA7A
100
AcDbEntity
  8
5C
 62
     0
370
    -2
100
AcDbLine
 10
0.0
 20
0.0
 30
0.0
 11
-1.0
 21
-0.26794919
 31
0.0
  0
LINE
  5
AA7E
330
AA7A
100
AcDbEntity
  8
5C
 62
     0
370
    -2
100
AcDbLine
 10
0.0
 20
0.0
 30
0.0
 11
-1.0
 21
0.0
 31
0.0
  0
ENDBLK
  5
AA7F
330
AA7A
100
AcDbEntity
  8
0
100
AcDbBlockEnd
  0
BLOCK
  5
AA85
330
AA84
100
AcDbEntity
  8
0
100
AcDbBlockBegin
  2
_DOT
 70
     0
 10
0.0
 20
0.0
 30
0.0
  3
_DOT
  1

  0
LWPOLYLINE
  5
AA86
330
AA84
100
AcDbEntity
  8
0
  6
ByBlock
 62
     0
100
AcDbPolyline
 90
        2
 70
     1
 43
0.5
 10
-0.25
 20
0.0
 42
1.0
 10
0.25
 20
0.0
 42
1.0
  0
LINE
  5
AA87
330
AA84
100
AcDbEntity
  8
0
  6
ByBlock
 62
     0
100
AcDbLine
 10
-0.5
 20
0.0
 30
0.0
 11
-1.0
 21
0.0
 31
0.0
  0
ENDBLK
  5
AA88
330
AA84
100
AcDbEntity
  8
0
100
AcDbBlockEnd
  0
BLOCK
  5
B997
330
B996
100
AcDbEntity
  8
0
100
AcDbBlockBegin
  2
図枠
 70
     0
 10
0.0
 20
0.0
 30
0.0
  3
図枠
  1

  0
LINE
  5
B998
330
B996
100
AcDbEntity
  8
0
100
AcDbLine
 10
594.0
 20
0.0
 30
0.0
 11
0.0
 21
0.0
 31
0.0
  0
LINE
  5
B999
330
B996
100
AcDbEntity
  8
0
100
AcDbLine
 10
0.0
 20
420.0
 30
0.0
 11
594.0
 21
420.0
 31
0.0
  0
LINE
  5
B99A
330
B996
100
AcDbEntity
  8
0
100
AcDbLine
 10
116.1374999999997
 20
0.0
 30
0.0
 11
594.0
 21
0.0
 31
0.0
  0
LINE
  5
B99B
330
B996
100
AcDbEntity
  8
0
100
AcDbLine
 10
0.0
 20
26.51384921914246
 30
0.0
 11
594.0
 21
26.51384921914246
 31
0.0
  0
LINE
  5
B99C
330
B996
100
AcDbEntity
  8
0
100
AcDbLine
 10
0.0
 20
0.0
 30
0.0
 11
0.0
 21
420.0
 31
0.0
  0
LINE
  5
B99D
330
B996
100
AcDbEntity
  8
0
100
AcDbLine
 10
594.0
 20
420.0
 30
0.0
 11
594.0
 21
0.0
 31
0.0
  0
LINE
  5
B99E
330
B996
100
AcDbEntity
  8
0
100
AcDbLine
 10
594.0
 20
21.0
 30
0.0
 11
594.0
 21
0.0
 31
0.0
  0
MTEXT
  5
B99F
330
B996
100
AcDbEntity
  8
0
100
AcDbMText
 10
2.231428057896478
 20
21.26941903308875
 30
0.0
 40
4.2
 41
12.6
 71
     1
 72
     5
  1
備
  7
MS明朝
 73
     1
 44
1.0
1001
ACAD
1000
MTEXTBEGIN
1070
    73
1070
     1
1070
    44
1040
1.0
1070
    74
1070
     0
1000
MTEXTEND
  0
MTEXT
  5
B9A0
330
B996
100
AcDbEntity
  8
0
100
AcDbMText
 10
2.231428057896478
 20
11.14667423662558
 30
0.0
 40
4.2
 41
12.6
 71
     1
 72
     5
  1
考
  7
MS明朝
 73
     1
 44
1.0
1001
ACAD
1000
MTEXTBEGIN
1070
    73
1070
     1
1070
    44
1040
1.0
1070
    74
1070
     0
1000
MTEXTEND
  0
LINE
  5
B9A1
330
B996
100
AcDbEntity
  8
0
100
AcDbLine
 10
121.3776543878405
 20
26.51384921914246
 30
0.0
 11
121.3776543878405
 21
0.0
 31
0.0
  0
MTEXT
  5
B9A2
330
B996
100
AcDbEntity
  8
0
100
AcDbMText
 10
113.4921584079479
 20
23.2923300836319
 30
0.0
 40
4.2
 41
12.6
 71
     1
 72
     5
  1
工\P事\P名
  7
MS明朝
 73
     1
 44
1.0
1001
ACAD
1000
MTEXTBEGIN
1070
    73
1070
     1
1070
    44
1040
1.0
1070
    74
1070
     0
1000
MTEXTEND
  0
LINE
  5
B9A3
330
B996
100
AcDbEntity
  8
0
100
AcDbLine
 10
110.7128217769815
 20
26.51384921914246
 30
0.0
 11
110.7128217769815
 21
0.0
 31
0.0
  0
LINE
  5
B9A4
330
B996
100
AcDbEntity
  8
0
100
AcDbLine
 10
217.1095129365529
 20
26.51384921914246
 30
0.0
 11
217.1095129365529
 21
-0.055397184039748
 31
0.0
  0
TEXT
  5
B9A5
330
B996
100
AcDbEntity
  8
0
100
AcDbText
 10
219.0034769266646
 20
20.51677453224977
 30
0.0
 40
3.149999999999999
  1
御承諾印
  7
MS明朝
100
AcDbText
  0
TEXT
  5
B9A6
330
B996
100
AcDbEntity
  8
0
100
AcDbText
 10
208.4202037588631
 20
3.950225098602345
 30
0.0
 40
3.674999999999998
  1
殿
  7
MS明朝
100
AcDbText
  0
TEXT
  5
B9A7
330
B996
100
AcDbEntity
  8
0
100
AcDbText
 10
239.0835444966229
 20
2.622918883609711
 30
0.0
 40
3.149999999999999
  1
年
  7
MS明朝
100
AcDbText
  0
TEXT
  5
B9A8
330
B996
100
AcDbEntity
  8
0
100
AcDbText
 10
251.2946781464069
 20
2.622918883609711
 30
0.0
 40
3.149999999999999
  1
月
  7
MS明朝
100
AcDbText
  0
TEXT
  5
B9A9
330
B996
100
AcDbEntity
  8
0
100
AcDbText
 10
263.2679333339237
 20
2.622918883609711
 30
0.0
 40
3.149999999999999
  1
日
  7
MS明朝
100
AcDbText
  0
LINE
  5
B9AA
330
B996
100
AcDbEntity
  8
0
100
AcDbLine
 10
269.7077997579905
 20
26.51384921914246
 30
0.0
 11
269.7077997579905
 21
-0.055397184039748
 31
0.0
  0
LINE
  5
B9AB
330
B996
100
AcDbEntity
  8
0
100
AcDbLine
 10
280.5584944675866
 20
26.51384921914246
 30
0.0
 11
280.5584944675866
 21
-0.055397184039748
 31
0.0
  0
MTEXT
  5
B9AC
330
B996
100
AcDbEntity
  8
0
100
AcDbMText
 10
272.1975501654529
 20
21.26941903308875
 30
0.0
 40
4.2
 41
12.6
 71
     1
 72
     5
  1
図
  7
MS明朝
 73
     1
 44
1.0
1001
ACAD
1000
MTEXTBEGIN
1070
    73
1070
     1
1070
    44
1040
1.0
1070
    74
1070
     0
1000
MTEXTEND
  0
MTEXT
  5
B9AD
330
B996
100
AcDbEntity
  8
0
100
AcDbMText
 10
272.1975501654529
 20
11.14667423662558
 30
0.0
 40
4.2
 41
12.6
 71
     1
 72
     5
  1
面
  7
MS明朝
 73
     1
 44
1.0
1001
ACAD
1000
MTEXTBEGIN
1070
    73
1070
     1
1070
    44
1040
1.0
1070
    74
1070
     0
1000
MTEXTEND
  0
LINE
  5
B9AE
330
B996
100
AcDbEntity
  8
0
100
AcDbLine
 10
360.0327904955558
 20
26.51384921914246
 30
0.0
 11
360.0327904955558
 21
-0.055397184039748
 31
0.0
  0
LINE
  5
B9AF
330
B996
100
AcDbEntity
  8
0
100
AcDbLine
 10
381.7496064953878
 20
26.51384921914246
 30
0.0
 11
381.7496064953878
 21
-0.055397184039748
 31
0.0
  0
LINE
  5
B9B0
330
B996
100
AcDbEntity
  8
0
100
AcDbLine
 10
360.0327904955558
 20
13.22922601755158
 30
0.0
 11
429.1915322419155
 21
13.22922601755158
 31
0.0
  0
TEXT
  5
B9B1
330
B996
100
AcDbEntity
  8
0
100
AcDbText
 10
364.2172484302149
 20
17.97130206335294
 30
0.0
 40
3.149999999999999
  1
縮　尺
  7
MS明朝
100
AcDbText
  0
TEXT
  5
B9B2
330
B996
100
AcDbEntity
  8
0
100
AcDbText
 10
364.2172484302149
 20
4.872922833204483
 30
0.0
 40
3.149999999999999
  1
日　付
  7
MS明朝
100
AcDbText
  0
LINE
  5
B9B3
330
B996
100
AcDbEntity
  8
0
100
AcDbLine
 10
429.1915322419155
 20
26.51384921914246
 30
0.0
 11
429.1915322419155
 21
-0.055397184039748
 31
0.0
  0
LINE
  5
B9B4
330
B996
100
AcDbEntity
  8
0
100
AcDbLine
 10
394.6672245464067
 20
22.52561172378978
 30
0.0
 11
386.8609920221235
 21
14.49652804212348
 31
0.0
  0
LINE
  5
B9B5
330
B996
100
AcDbEntity
  8
0
100
AcDbLine
 10
409.246509076638
 20
22.52561172378978
 30
0.0
 11
401.4402765523549
 21
14.49652804212348
 31
0.0
  0
LINE
  5
B9B6
330
B996
100
AcDbEntity
  8
0
100
AcDbLine
 10
423.8257965508737
 20
22.52561172378978
 30
0.0
 11
416.0195640265906
 21
14.49652804212348
 31
0.0
  0
LINE
  5
B9B7
330
B996
100
AcDbEntity
  8
0
100
AcDbLine
 10
450.2381663530832
 20
26.51384921914246
 30
0.0
 11
450.2381663530832
 21
-0.055397184039748
 31
0.0
  0
LINE
  5
B9B8
330
B996
100
AcDbEntity
  8
0
100
AcDbLine
 10
471.2848004642507
 20
26.51384921914246
 30
0.0
 11
471.2848004642507
 21
-0.055397184039748
 31
0.0
  0
LINE
  5
B9B9
330
B996
100
AcDbEntity
  8
0
100
AcDbLine
 10
429.1915322419155
 20
15.65381356903219
 30
0.0
 11
471.2848004642507
 21
15.65381356903219
 31
0.0
  0
TEXT
  5
B9BA
330
B996
100
AcDbEntity
  8
0
100
AcDbText
 10
432.7963040249878
 20
18.69511933238413
 30
0.0
 40
3.149999999999999
  1
担　当
  7
MS明朝
100
AcDbText
  0
TEXT
  5
B9BB
330
B996
100
AcDbEntity
  8
0
100
AcDbText
 10
454.0646922888501
 20
18.69511933238413
 30
0.0
 40
3.149999999999999
  1
作　図
  7
MS明朝
100
AcDbText
  0
LINE
  5
B9BC
330
B996
100
AcDbEntity
  8
0
100
AcDbLine
 10
562.5325904011108
 20
26.51384921914246
 30
0.0
 11
562.5325904011108
 21
0.0
 31
0.0
  0
TEXT
  5
B9BD
330
B996
100
AcDbEntity
  8
0
100
AcDbText
 10
563.5070506969805
 20
20.73321540780899
 30
0.0
 40
3.149999999999999
  1
作図番号
  7
MS明朝
100
AcDbText
  0
LINE
  5
B9BE
330
B996
100
AcDbEntity
  8
0
100
AcDbLine
 10
585.310457804568
 20
12.46714010094672
 30
0.0
 11
575.6213669531297
 21
2.786178358082109
 31
0.0
  0
LINE
  5
B9BF
330
B996
100
AcDbEntity
  8
0
100
AcDbLine
 10
38.69152293401891
 20
26.51384921914246
 30
0.0
 11
38.69152293401891
 21
0.0
 31
0.0
  0
LINE
  5
B9C0
330
B996
100
AcDbEntity
  8
0
100
AcDbLine
 10
10.66800000000012
 20
17.67589947942826
 30
0.0
 11
13.56464232411872
 21
17.67589947942815
 31
0.0
  0
LINE
  5
B9C1
330
B996
100
AcDbEntity
  8
0
100
AcDbLine
 10
10.66800000000012
 20
8.837949739714417
 30
0.0
 11
13.56464232411872
 21
8.837949739714304
 31
0.0
  0
LINE
  5
B9C2
330
B996
100
AcDbEntity
  8
0
100
AcDbLine
 10
16.82714232411871
 20
17.67589947942815
 30
0.0
 11
19.97714232411869
 21
17.67589947942815
 31
0.0
  0
LINE
  5
B9C3
330
B996
100
AcDbEntity
  8
0
100
AcDbLine
 10
16.82714232411871
 20
8.837949739714304
 30
0.0
 11
19.97714232411869
 21
8.837949739714304
 31
0.0
  0
LINE
  5
B9C4
330
B996
100
AcDbEntity
  8
0
100
AcDbLine
 10
22.07714232411871
 20
17.67589947942815
 30
0.0
 11
25.22714232411869
 21
17.67589947942815
 31
0.0
  0
LINE
  5
B9C5
330
B996
100
AcDbEntity
  8
0
100
AcDbLine
 10
22.07714232411871
 20
8.837949739714304
 30
0.0
 11
25.22714232411869
 21
8.837949739714304
 31
0.0
  0
LINE
  5
B9C6
330
B996
100
AcDbEntity
  8
0
100
AcDbLine
 10
27.32714232411871
 20
17.67589947942815
 30
0.0
 11
30.47714232411869
 21
17.67589947942815
 31
0.0
  0
LINE
  5
B9C7
330
B996
100
AcDbEntity
  8
0
100
AcDbLine
 10
27.32714232411871
 20
8.837949739714304
 30
0.0
 11
30.47714232411869
 21
8.837949739714304
 31
0.0
  0
LINE
  5
B9C8
330
B996
100
AcDbEntity
  8
0
100
AcDbLine
 10
32.57714232411871
 20
17.67589947942815
 30
0.0
 11
35.72714232411869
 21
17.67589947942815
 31
0.0
  0
LINE
  5
B9C9
330
B996
100
AcDbEntity
  8
0
100
AcDbLine
 10
32.57714232411871
 20
8.837949739714304
 30
0.0
 11
35.72714232411869
 21
8.837949739714304
 31
0.0
  0
LINE
  5
B9CA
330
B996
100
AcDbEntity
  8
0
100
AcDbLine
 10
37.82714232411871
 20
17.67589947942815
 30
0.0
 11
40.97714232411869
 21
17.67589947942815
 31
0.0
  0
LINE
  5
B9CB
330
B996
100
AcDbEntity
  8
0
100
AcDbLine
 10
37.82714232411871
 20
8.837949739714304
 30
0.0
 11
40.97714232411869
 21
8.837949739714304
 31
0.0
  0
LINE
  5
B9CC
330
B996
100
AcDbEntity
  8
0
100
AcDbLine
 10
43.0771423241187
 20
17.67589947942815
 30
0.0
 11
46.22714232411868
 21
17.67589947942815
 31
0.0
  0
LINE
  5
B9CD
330
B996
100
AcDbEntity
  8
0
100
AcDbLine
 10
43.0771423241187
 20
8.837949739714304
 30
0.0
 11
46.22714232411868
 21
8.837949739714304
 31
0.0
  0
LINE
  5
B9CE
330
B996
100
AcDbEntity
  8
0
100
AcDbLine
 10
48.32714232411871
 20
17.67589947942815
 30
0.0
 11
51.47714232411868
 21
17.67589947942815
 31
0.0
  0
LINE
  5
B9CF
330
B996
100
AcDbEntity
  8
0
100
AcDbLine
 10
48.32714232411871
 20
8.837949739714304
 30
0.0
 11
51.47714232411868
 21
8.837949739714304
 31
0.0
  0
LINE
  5
B9D0
330
B996
100
AcDbEntity
  8
0
100
AcDbLine
 10
53.57714232411871
 20
17.67589947942815
 30
0.0
 11
56.72714232411869
 21
17.67589947942815
 31
0.0
  0
LINE
  5
B9D1
330
B996
100
AcDbEntity
  8
0
100
AcDbLine
 10
53.57714232411871
 20
8.837949739714304
 30
0.0
 11
56.72714232411869
 21
8.837949739714304
 31
0.0
  0
LINE
  5
B9D2
330
B996
100
AcDbEntity
  8
0
100
AcDbLine
 10
58.82714232411871
 20
17.67589947942815
 30
0.0
 11
61.97714232411868
 21
17.67589947942815
 31
0.0
  0
LINE
  5
B9D3
330
B996
100
AcDbEntity
  8
0
100
AcDbLine
 10
58.82714232411871
 20
8.837949739714304
 30
0.0
 11
61.97714232411868
 21
8.837949739714304
 31
0.0
  0
LINE
  5
B9D4
330
B996
100
AcDbEntity
  8
0
100
AcDbLine
 10
64.07714232411871
 20
17.67589947942815
 30
0.0
 11
67.22714232411869
 21
17.67589947942815
 31
0.0
  0
LINE
  5
B9D5
330
B996
100
AcDbEntity
  8
0
100
AcDbLine
 10
64.07714232411871
 20
8.837949739714304
 30
0.0
 11
67.22714232411869
 21
8.837949739714304
 31
0.0
  0
LINE
  5
B9D6
330
B996
100
AcDbEntity
  8
0
100
AcDbLine
 10
69.32714232411871
 20
17.67589947942815
 30
0.0
 11
72.47714232411869
 21
17.67589947942815
 31
0.0
  0
LINE
  5
B9D7
330
B996
100
AcDbEntity
  8
0
100
AcDbLine
 10
69.32714232411871
 20
8.837949739714304
 30
0.0
 11
72.47714232411869
 21
8.837949739714304
 31
0.0
  0
LINE
  5
B9D8
330
B996
100
AcDbEntity
  8
0
100
AcDbLine
 10
74.5771423241187
 20
17.67589947942815
 30
0.0
 11
77.72714232411868
 21
17.67589947942815
 31
0.0
  0
LINE
  5
B9D9
330
B996
100
AcDbEntity
  8
0
100
AcDbLine
 10
74.5771423241187
 20
8.837949739714304
 30
0.0
 11
77.72714232411868
 21
8.837949739714304
 31
0.0
  0
LINE
  5
B9DA
330
B996
100
AcDbEntity
  8
0
100
AcDbLine
 10
79.82714232411869
 20
17.67589947942815
 30
0.0
 11
82.97714232411868
 21
17.67589947942815
 31
0.0
  0
LINE
  5
B9DB
330
B996
100
AcDbEntity
  8
0
100
AcDbLine
 10
79.82714232411869
 20
8.837949739714304
 30
0.0
 11
82.97714232411868
 21
8.837949739714304
 31
0.0
  0
LINE
  5
B9DC
330
B996
100
AcDbEntity
  8
0
100
AcDbLine
 10
85.07714232411869
 20
17.67589947942815
 30
0.0
 11
88.22714232411868
 21
17.67589947942815
 31
0.0
  0
LINE
  5
B9DD
330
B996
100
AcDbEntity
  8
0
100
AcDbLine
 10
85.07714232411869
 20
8.837949739714304
 30
0.0
 11
88.22714232411868
 21
8.837949739714304
 31
0.0
  0
LINE
  5
B9DE
330
B996
100
AcDbEntity
  8
0
100
AcDbLine
 10
90.32714232411871
 20
17.67589947942815
 30
0.0
 11
93.47714232411869
 21
17.67589947942815
 31
0.0
  0
LINE
  5
B9DF
330
B996
100
AcDbEntity
  8
0
100
AcDbLine
 10
90.32714232411871
 20
8.837949739714304
 30
0.0
 11
93.47714232411869
 21
8.837949739714304
 31
0.0
  0
LINE
  5
B9E0
330
B996
100
AcDbEntity
  8
0
100
AcDbLine
 10
95.57714232411871
 20
17.67589947942815
 30
0.0
 11
98.72714232411869
 21
17.67589947942815
 31
0.0
  0
LINE
  5
B9E1
330
B996
100
AcDbEntity
  8
0
100
AcDbLine
 10
95.57714232411871
 20
8.837949739714304
 30
0.0
 11
98.72714232411869
 21
8.837949739714304
 31
0.0
  0
LINE
  5
B9E2
330
B996
100
AcDbEntity
  8
0
100
AcDbLine
 10
100.8271423241187
 20
17.67589947942815
 30
0.0
 11
103.9771423241187
 21
17.67589947942815
 31
0.0
  0
LINE
  5
B9E3
330
B996
100
AcDbEntity
  8
0
100
AcDbLine
 10
100.8271423241187
 20
8.837949739714304
 30
0.0
 11
103.9771423241187
 21
8.837949739714304
 31
0.0
  0
LINE
  5
B9E4
330
B996
100
AcDbEntity
  8
0
100
AcDbLine
 10
106.0771423241187
 20
17.67589947942815
 30
0.0
 11
109.2271423241187
 21
17.67589947942815
 31
0.0
  0
LINE
  5
B9E5
330
B996
100
AcDbEntity
  8
0
100
AcDbLine
 10
106.0771423241187
 20
8.837949739714304
 30
0.0
 11
109.2271423241187
 21
8.837949739714304
 31
0.0
  0
LINE
  5
B9E6
330
B996
100
AcDbEntity
  8
0
100
AcDbLine
 10
121.3776543878405
 20
13.25692460957123
 30
0.0
 11
124.5276543878405
 21
13.25692460957123
 31
0.0
  0
LINE
  5
B9E7
330
B996
100
AcDbEntity
  8
0
100
AcDbLine
 10
126.6276543878405
 20
13.25692460957123
 30
0.0
 11
129.7776543878405
 21
13.25692460957123
 31
0.0
  0
LINE
  5
B9E8
330
B996
100
AcDbEntity
  8
0
100
AcDbLine
 10
131.8776543878405
 20
13.25692460957123
 30
0.0
 11
135.0276543878405
 21
13.25692460957123
 31
0.0
  0
LINE
  5
B9E9
330
B996
100
AcDbEntity
  8
0
100
AcDbLine
 10
137.1276543878405
 20
13.25692460957123
 30
0.0
 11
140.2776543878405
 21
13.25692460957123
 31
0.0
  0
LINE
  5
B9EA
330
B996
100
AcDbEntity
  8
0
100
AcDbLine
 10
142.3776543878405
 20
13.25692460957123
 30
0.0
 11
145.5276543878405
 21
13.25692460957123
 31
0.0
  0
LINE
  5
B9EB
330
B996
100
AcDbEntity
  8
0
100
AcDbLine
 10
147.6276543878405
 20
13.25692460957123
 30
0.0
 11
150.7776543878405
 21
13.25692460957123
 31
0.0
  0
LINE
  5
B9EC
330
B996
100
AcDbEntity
  8
0
100
AcDbLine
 10
152.8776543878405
 20
13.25692460957123
 30
0.0
 11
156.0276543878405
 21
13.25692460957123
 31
0.0
  0
LINE
  5
B9ED
330
B996
100
AcDbEntity
  8
0
100
AcDbLine
 10
158.1276543878405
 20
13.25692460957123
 30
0.0
 11
161.2776543878405
 21
13.25692460957123
 31
0.0
  0
LINE
  5
B9EE
330
B996
100
AcDbEntity
  8
0
100
AcDbLine
 10
163.3776543878405
 20
13.25692460957123
 30
0.0
 11
166.5276543878405
 21
13.25692460957123
 31
0.0
  0
LINE
  5
B9EF
330
B996
100
AcDbEntity
  8
0
100
AcDbLine
 10
168.6276543878405
 20
13.25692460957123
 30
0.0
 11
171.7776543878405
 21
13.25692460957123
 31
0.0
  0
LINE
  5
B9F0
330
B996
100
AcDbEntity
  8
0
100
AcDbLine
 10
173.8776543878405
 20
13.25692460957123
 30
0.0
 11
177.0276543878405
 21
13.25692460957123
 31
0.0
  0
LINE
  5
B9F1
330
B996
100
AcDbEntity
  8
0
100
AcDbLine
 10
179.1276543878405
 20
13.25692460957123
 30
0.0
 11
182.2776543878405
 21
13.25692460957123
 31
0.0
  0
LINE
  5
B9F2
330
B996
100
AcDbEntity
  8
0
100
AcDbLine
 10
184.3776543878405
 20
13.25692460957123
 30
0.0
 11
187.5276543878405
 21
13.25692460957123
 31
0.0
  0
LINE
  5
B9F3
330
B996
100
AcDbEntity
  8
0
100
AcDbLine
 10
189.6276543878405
 20
13.25692460957123
 30
0.0
 11
192.7776543878405
 21
13.25692460957123
 31
0.0
  0
LINE
  5
B9F4
330
B996
100
AcDbEntity
  8
0
100
AcDbLine
 10
194.8776543878405
 20
13.25692460957123
 30
0.0
 11
198.0276543878405
 21
13.25692460957123
 31
0.0
  0
LINE
  5
B9F5
330
B996
100
AcDbEntity
  8
0
100
AcDbLine
 10
200.1276543878406
 20
13.25692460957123
 30
0.0
 11
203.2776543878405
 21
13.25692460957123
 31
0.0
  0
LINE
  5
B9F6
330
B996
100
AcDbEntity
  8
0
100
AcDbLine
 10
205.3776543878405
 20
13.25692460957123
 30
0.0
 11
208.5276543878405
 21
13.25692460957123
 31
0.0
  0
LINE
  5
B9F7
330
B996
100
AcDbEntity
  8
0
100
AcDbLine
 10
210.6276543878406
 20
13.25692460957123
 30
0.0
 11
213.7776543878405
 21
13.25692460957123
 31
0.0
  0
LINE
  5
B9F8
330
B996
100
AcDbEntity
  8
0
100
AcDbLine
 10
10.66800000000012
 20
26.51384921914246
 30
0.0
 11
10.66800000000012
 21
0.0
 31
0.0
  0
CIRCLE
  5
B9F9
330
B996
100
AcDbEntity
  8
0
100
AcDbCircle
 10
18.51752895371385
 20
21.21249414653517
 30
0.0
 40
0.3313032698831706
  0
CIRCLE
  5
B9FA
330
B996
100
AcDbEntity
  8
0
100
AcDbCircle
 10
27.47023065131299
 20
21.21249414653517
 30
0.0
 40
0.3313032698831706
  0
CIRCLE
  5
B9FB
330
B996
100
AcDbEntity
  8
0
100
AcDbCircle
 10
18.51752895371385
 20
12.37454440682086
 30
0.0
 40
0.3313032698831706
  0
CIRCLE
  5
B9FC
330
B996
100
AcDbEntity
  8
0
100
AcDbCircle
 10
27.47023065131299
 20
12.37454440682086
 30
0.0
 40
0.3313032698831706
  0
CIRCLE
  5
B9FD
330
B996
100
AcDbEntity
  8
0
100
AcDbCircle
 10
18.51752895371385
 20
3.536594667106669
 30
0.0
 40
0.3313032698831706
  0
CIRCLE
  5
B9FE
330
B996
100
AcDbEntity
  8
0
100
AcDbCircle
 10
27.47023065131299
 20
3.536594667106669
 30
0.0
 40
0.3313032698831706
  0
LINE
  5
B9FF
330
B996
100
AcDbEntity
  8
0
100
AcDbLine
 10
280.5584944675866
 20
17.64820088740839
 30
0.0
 11
283.4551367917052
 21
17.6482008874085
 31
0.0
  0
LINE
  5
BA00
330
B996
100
AcDbEntity
  8
0
100
AcDbLine
 10
280.5584944675866
 20
8.810251147694202
 30
0.0
 11
283.4551367917052
 21
8.810251147694202
 31
0.0
  0
LINE
  5
BA01
330
B996
100
AcDbEntity
  8
0
100
AcDbLine
 10
285.5551367917053
 20
17.6482008874085
 30
0.0
 11
288.7051367917052
 21
17.6482008874085
 31
0.0
  0
LINE
  5
BA02
330
B996
100
AcDbEntity
  8
0
100
AcDbLine
 10
285.5551367917053
 20
8.810251147694202
 30
0.0
 11
288.7051367917052
 21
8.810251147694202
 31
0.0
  0
LINE
  5
BA03
330
B996
100
AcDbEntity
  8
0
100
AcDbLine
 10
290.8051367917053
 20
17.6482008874085
 30
0.0
 11
293.9551367917052
 21
17.6482008874085
 31
0.0
  0
LINE
  5
BA04
330
B996
100
AcDbEntity
  8
0
100
AcDbLine
 10
290.8051367917053
 20
8.810251147694202
 30
0.0
 11
293.9551367917052
 21
8.810251147694202
 31
0.0
  0
LINE
  5
BA05
330
B996
100
AcDbEntity
  8
0
100
AcDbLine
 10
296.0551367917052
 20
17.6482008874085
 30
0.0
 11
299.2051367917052
 21
17.6482008874085
 31
0.0
  0
LINE
  5
BA06
330
B996
100
AcDbEntity
  8
0
100
AcDbLine
 10
296.0551367917052
 20
8.810251147694202
 30
0.0
 11
299.2051367917052
 21
8.810251147694202
 31
0.0
  0
LINE
  5
BA07
330
B996
100
AcDbEntity
  8
0
100
AcDbLine
 10
301.3051367917053
 20
17.6482008874085
 30
0.0
 11
304.4551367917052
 21
17.6482008874085
 31
0.0
  0
LINE
  5
BA08
330
B996
100
AcDbEntity
  8
0
100
AcDbLine
 10
301.3051367917053
 20
8.810251147694202
 30
0.0
 11
304.4551367917052
 21
8.810251147694202
 31
0.0
  0
LINE
  5
BA09
330
B996
100
AcDbEntity
  8
0
100
AcDbLine
 10
306.5551367917052
 20
17.6482008874085
 30
0.0
 11
309.7051367917052
 21
17.6482008874085
 31
0.0
  0
LINE
  5
BA0A
330
B996
100
AcDbEntity
  8
0
100
AcDbLine
 10
306.5551367917052
 20
8.810251147694202
 30
0.0
 11
309.7051367917052
 21
8.810251147694202
 31
0.0
  0
LINE
  5
BA0B
330
B996
100
AcDbEntity
  8
0
100
AcDbLine
 10
311.8051367917053
 20
17.6482008874085
 30
0.0
 11
314.9551367917052
 21
17.6482008874085
 31
0.0
  0
LINE
  5
BA0C
330
B996
100
AcDbEntity
  8
0
100
AcDbLine
 10
311.8051367917053
 20
8.810251147694202
 30
0.0
 11
314.9551367917052
 21
8.810251147694202
 31
0.0
  0
LINE
  5
BA0D
330
B996
100
AcDbEntity
  8
0
100
AcDbLine
 10
317.0551367917052
 20
17.6482008874085
 30
0.0
 11
320.2051367917052
 21
17.6482008874085
 31
0.0
  0
LINE
  5
BA0E
330
B996
100
AcDbEntity
  8
0
100
AcDbLine
 10
317.0551367917052
 20
8.810251147694202
 30
0.0
 11
320.2051367917052
 21
8.810251147694202
 31
0.0
  0
LINE
  5
BA0F
330
B996
100
AcDbEntity
  8
0
100
AcDbLine
 10
322.3051367917053
 20
17.6482008874085
 30
0.0
 11
325.4551367917053
 21
17.6482008874085
 31
0.0
  0
LINE
  5
BA10
330
B996
100
AcDbEntity
  8
0
100
AcDbLine
 10
322.3051367917053
 20
8.810251147694202
 30
0.0
 11
325.4551367917053
 21
8.810251147694202
 31
0.0
  0
LINE
  5
BA11
330
B996
100
AcDbEntity
  8
0
100
AcDbLine
 10
327.5551367917052
 20
17.6482008874085
 30
0.0
 11
330.7051367917052
 21
17.6482008874085
 31
0.0
  0
LINE
  5
BA12
330
B996
100
AcDbEntity
  8
0
100
AcDbLine
 10
327.5551367917052
 20
8.810251147694202
 30
0.0
 11
330.7051367917052
 21
8.810251147694202
 31
0.0
  0
LINE
  5
BA13
330
B996
100
AcDbEntity
  8
0
100
AcDbLine
 10
332.8051367917053
 20
17.6482008874085
 30
0.0
 11
335.9551367917052
 21
17.6482008874085
 31
0.0
  0
LINE
  5
BA14
330
B996
100
AcDbEntity
  8
0
100
AcDbLine
 10
332.8051367917053
 20
8.810251147694202
 30
0.0
 11
335.9551367917052
 21
8.810251147694202
 31
0.0
  0
LINE
  5
BA15
330
B996
100
AcDbEntity
  8
0
100
AcDbLine
 10
338.0551367917052
 20
17.6482008874085
 30
0.0
 11
341.2051367917052
 21
17.6482008874085
 31
0.0
  0
LINE
  5
BA16
330
B996
100
AcDbEntity
  8
0
100
AcDbLine
 10
338.0551367917052
 20
8.810251147694202
 30
0.0
 11
341.2051367917052
 21
8.810251147694202
 31
0.0
  0
LINE
  5
BA17
330
B996
100
AcDbEntity
  8
0
100
AcDbLine
 10
343.3051367917053
 20
17.6482008874085
 30
0.0
 11
346.4551367917052
 21
17.6482008874085
 31
0.0
  0
LINE
  5
BA18
330
B996
100
AcDbEntity
  8
0
100
AcDbLine
 10
343.3051367917053
 20
8.810251147694202
 30
0.0
 11
346.4551367917052
 21
8.810251147694202
 31
0.0
  0
LINE
  5
BA19
330
B996
100
AcDbEntity
  8
0
100
AcDbLine
 10
348.5551367917052
 20
17.6482008874085
 30
0.0
 11
351.7051367917052
 21
17.6482008874085
 31
0.0
  0
LINE
  5
BA1A
330
B996
100
AcDbEntity
  8
0
100
AcDbLine
 10
348.5551367917052
 20
8.810251147694202
 30
0.0
 11
351.7051367917052
 21
8.810251147694202
 31
0.0
  0
LINE
  5
BA1B
330
B996
100
AcDbEntity
  8
0
100
AcDbLine
 10
353.8051367917053
 20
17.6482008874085
 30
0.0
 11
356.9551367917052
 21
17.6482008874085
 31
0.0
  0
LINE
  5
BA1C
330
B996
100
AcDbEntity
  8
0
100
AcDbLine
 10
353.8051367917053
 20
8.810251147694202
 30
0.0
 11
356.9551367917052
 21
8.810251147694202
 31
0.0
  0
LINE
  5
BA1D
330
B996
100
AcDbEntity
  8
0
100
AcDbLine
 10
359.0551367917052
 20
17.6482008874085
 30
0.0
 11
360.0327904955558
 21
17.6482008874085
 31
0.0
  0
LINE
  5
BA1E
330
B996
100
AcDbEntity
  8
0
100
AcDbLine
 10
359.0551367917052
 20
8.810251147694202
 30
0.0
 11
360.0327904955558
 21
8.810251147694202
 31
0.0
  0
ENDBLK
  5
BA1F
330
B996
100
AcDbEntity
  8
0
100
AcDbBlockEnd
  0
ENDSEC
  0
SECTION
  2
ENTITIES
  0
LINE
  5
D506
330
36
100
AcDbEntity
  8
位置合わせ
  6
Continuous
 62
     5
100
AcDbLine
 10
0.0000217337974391
 20
0.0000126002503294
 30
0.0
 11
20.00011882447052
 21
0.0000126002503294
 31
0.0
  0
LINE
  5
D507
330
36
100
AcDbEntity
  8
位置合わせ
  6
Continuous
 62
     5
100
AcDbLine
 10
0.0000217337974391
 20
0.0000126002503294
 30
0.0
 11
0.0000217337974391
 21
20.00010969092295
 31
0.0
  0
LINE
  5
D508
330
36
100
AcDbEntity
  8
位置合わせ
  6
Continuous
 62
     5
100
AcDbLine
 10
594.0000217337973
 20
0.0000126002503294
 30
0.0
 11
594.0000217337973
 21
20.00010969092295
 31
0.0
  0
LINE
  5
D509
330
36
100
AcDbEntity
  8
位置合わせ
  6
Continuous
 62
     5
100
AcDbLine
 10
594.0000217337973
 20
0.0000126002503294
 30
0.0
 11
574.0002046036088
 21
0.0000126002503294
 31
0.0
  0
LINE
  5
D50A
330
36
100
AcDbEntity
  8
位置合わせ
  6
Continuous
 62
     5
100
AcDbLine
 10
594.0000217337973
 20
420.0000917809932
 30
0.0
 11
574.0002046036088
 21
420.0000917809932
 31
0.0
  0
LINE
  5
D50B
330
36
100
AcDbEntity
  8
位置合わせ
  6
Continuous
 62
     5
100
AcDbLine
 10
594.0000217337973
 20
420.0000917809932
 30
0.0
 11
594.0000217337973
 21
400.0002746508049
 31
0.0
  0
LINE
  5
D50C
330
36
100
AcDbEntity
  8
位置合わせ
  6
Continuous
 62
     5
100
AcDbLine
 10
0.0000217337974391
 20
420.0000917809932
 30
0.0
 11
0.0000217337974391
 21
400.0002746508049
 31
0.0
  0
LINE
  5
D50D
330
36
100
AcDbEntity
  8
位置合わせ
  6
Continuous
 62
     5
100
AcDbLine
 10
0.0000217337974391
 20
420.0000917809932
 30
0.0
 11
20.00011882447052
 21
420.0000917809932
 31
0.0
  0
LINE
  5
D50E
330
36
100
AcDbEntity
  8
_0-0_型材図
  6
Continuous
 62
     7
100
AcDbLine
 10
512.7610881852933
 20
324.4938119939509
 30
0.0
 11
511.2610599064569
 21
324.4938119939509
 31
0.0
  0
LINE
  5
D50F
330
36
100
AcDbEntity
  8
_0-0_型材図
  6
Continuous
 62
     7
100
AcDbLine
 10
481.2610542506891
 20
324.4938119939509
 30
0.0
 11
479.7610259718526
 21
324.4938119939509
 31
0.0
  0
LINE
  5
D510
330
36
100
AcDbEntity
  8
_0-0_型材図
  6
Continuous
 62
     7
100
AcDbLine
 10
479.7610259718526
 20
310.493828018625
 30
0.0
 11
481.2610542506891
 21
310.493828018625
 31
0.0
  0
LINE
  5
D511
330
36
100
AcDbEntity
  8
_0-0_型材図
  6
Continuous
 62
     7
100
AcDbLine
 10
511.2610599064569
 20
310.493828018625
 30
0.0
 11
512.7610881852933
 21
310.493828018625
 31
0.0
  0
LINE
  5
D512
330
36
100
AcDbEntity
  8
_0-0_型材図
  6
Continuous
 62
     7
100
AcDbLine
 10
497.2610759311309
 20
314.493623468373
 30
0.0
 11
497.2610759311309
 21
316.4936611734886
 31
0.0
  0
LINE
  5
D513
330
36
100
AcDbEntity
  8
_0-0_型材図
  6
Continuous
 62
     7
100
AcDbLine
 10
495.2610382260154
 20
316.4936611734886
 30
0.0
 11
495.2610382260154
 21
314.493623468373
 31
0.0
  0
LINE
  5
D514
330
36
100
AcDbEntity
  8
_0-0_型材図
  6
Continuous
 62
     7
100
AcDbLine
 10
497.2610759311309
 20
314.493623468373
 30
0.0
 11
511.2610599064569
 21
314.493623468373
 31
0.0
  0
LINE
  5
D515
330
36
100
AcDbEntity
  8
_0-0_型材図
  6
Continuous
 62
     7
100
AcDbLine
 10
497.2610759311309
 20
316.4936611734886
 30
0.0
 11
511.2610599064569
 21
316.4936611734886
 31
0.0
  0
LINE
  5
D516
330
36
100
AcDbEntity
  8
_0-0_型材図
  6
Continuous
 62
     7
100
AcDbLine
 10
512.7610881852933
 20
310.493828018625
 30
0.0
 11
512.7610881852933
 21
324.4938119939509
 31
0.0
  0
LINE
  5
D517
330
36
100
AcDbEntity
  8
_0-0_型材図
  6
Continuous
 62
     7
100
AcDbLine
 10
511.2610599064569
 20
310.493828018625
 30
0.0
 11
511.2610599064569
 21
314.493623468373
 31
0.0
  0
LINE
  5
D518
330
36
100
AcDbEntity
  8
_0-0_型材図
  6
Continuous
 62
     7
100
AcDbLine
 10
511.2610599064569
 20
316.4936611734886
 30
0.0
 11
511.2610599064569
 21
324.4938119939509
 31
0.0
  0
LINE
  5
D519
330
36
100
AcDbEntity
  8
_0-0_型材図
  6
Continuous
 62
     7
100
AcDbLine
 10
495.2610382260154
 20
314.493623468373
 30
0.0
 11
481.2610542506891
 21
314.493623468373
 31
0.0
  0
LINE
  5
D51A
330
36
100
AcDbEntity
  8
_0-0_型材図
  6
Continuous
 62
     7
100
AcDbLine
 10
495.2610382260154
 20
316.4936611734886
 30
0.0
 11
481.2610542506891
 21
316.4936611734886
 31
0.0
  0
LINE
  5
D51B
330
36
100
AcDbEntity
  8
_0-0_型材図
  6
Continuous
 62
     7
100
AcDbLine
 10
479.7610259718526
 20
324.4938119939509
 30
0.0
 11
479.7610259718526
 21
310.493828018625
 31
0.0
  0
LINE
  5
D51C
330
36
100
AcDbEntity
  8
_0-0_型材図
  6
Continuous
 62
     7
100
AcDbLine
 10
481.2610542506891
 20
324.4938119939509
 30
0.0
 11
481.2610542506891
 21
316.4936611734886
 31
0.0
  0
LINE
  5
D51D
330
36
100
AcDbEntity
  8
_0-0_型材図
  6
Continuous
 62
     7
100
AcDbLine
 10
481.2610542506891
 20
314.493623468373
 30
0.0
 11
481.2610542506891
 21
310.493828018625
 31
0.0
  0
LINE
  5
D51E
330
36
100
AcDbEntity
  8
_0-0_型材図
  6
Continuous
 62
     7
100
AcDbLine
 10
511.2610599064569
 20
314.493623468373
 30
0.0
 11
511.2610599064569
 21
299.4936206404883
 31
0.0
  0
LINE
  5
D51F
330
36
100
AcDbEntity
  8
_0-0_型材図
  6
Continuous
 62
     7
100
AcDbLine
 10
511.2610599064569
 20
299.4936206404883
 30
0.0
 11
501.261151341363
 21
299.4936206404883
 31
0.0
  0
LINE
  5
D520
330
36
100
AcDbEntity
  8
_0-0_型材図
  6
Continuous
 62
     7
100
AcDbLine
 10
501.261151341363
 20
299.4936206404883
 30
0.0
 11
501.261151341363
 21
314.493623468373
 31
0.0
  0
LINE
  5
D521
330
36
100
AcDbEntity
  8
_0-0_型材図
  6
Continuous
 62
     7
100
AcDbLine
 10
501.261151341363
 20
314.493623468373
 30
0.0
 11
511.2610599064569
 21
314.493623468373
 31
0.0
  0
LINE
  5
D522
330
36
100
AcDbEntity
  8
_0-0_型材図
  6
Continuous
 62
     7
100
AcDbLine
 10
509.76103162762
 20
312.9935951895348
 30
0.0
 11
509.76103162762
 21
300.9936489193249
 31
0.0
  0
LINE
  5
D523
330
36
100
AcDbEntity
  8
_0-0_型材図
  6
Continuous
 62
     7
100
AcDbLine
 10
509.76103162762
 20
300.9936489193249
 30
0.0
 11
502.7611796201995
 21
300.9936489193249
 31
0.0
  0
LINE
  5
D524
330
36
100
AcDbEntity
  8
_0-0_型材図
  6
Continuous
 62
     7
100
AcDbLine
 10
502.7611796201995
 20
300.9936489193249
 30
0.0
 11
502.7611796201995
 21
312.9935951895348
 31
0.0
  0
LINE
  5
D525
330
36
100
AcDbEntity
  8
_0-0_型材図
  6
Continuous
 62
     7
100
AcDbLine
 10
502.7611796201995
 20
312.9935951895348
 30
0.0
 11
509.76103162762
 21
312.9935951895348
 31
0.0
  0
LINE
  5
D526
330
36
100
AcDbEntity
  8
_0-0_型材図
  6
Continuous
 62
     7
100
AcDbLine
 10
491.2609628157842
 20
314.493623468373
 30
0.0
 11
491.2609628157842
 21
299.4936206404883
 31
0.0
  0
LINE
  5
D527
330
36
100
AcDbEntity
  8
_0-0_型材図
  6
Continuous
 62
     7
100
AcDbLine
 10
491.2609628157842
 20
299.4936206404883
 30
0.0
 11
481.2610542506891
 21
299.4936206404883
 31
0.0
  0
LINE
  5
D528
330
36
100
AcDbEntity
  8
_0-0_型材図
  6
Continuous
 62
     7
100
AcDbLine
 10
481.2610542506891
 20
299.4936206404883
 30
0.0
 11
481.2610542506891
 21
314.493623468373
 31
0.0
  0
LINE
  5
D529
330
36
100
AcDbEntity
  8
_0-0_型材図
  6
Continuous
 62
     7
100
AcDbLine
 10
481.2610542506891
 20
314.493623468373
 30
0.0
 11
491.2609628157842
 21
314.493623468373
 31
0.0
  0
LINE
  5
D52A
330
36
100
AcDbEntity
  8
_0-0_型材図
  6
Continuous
 62
     7
100
AcDbLine
 10
489.7612144974318
 20
312.9935951895348
 30
0.0
 11
489.7612144974318
 21
300.9936489193249
 31
0.0
  0
LINE
  5
D52B
330
36
100
AcDbEntity
  8
_0-0_型材図
  6
Continuous
 62
     7
100
AcDbLine
 10
489.7612144974318
 20
300.9936489193249
 30
0.0
 11
482.7610825295269
 21
300.9936489193249
 31
0.0
  0
LINE
  5
D52C
330
36
100
AcDbEntity
  8
_0-0_型材図
  6
Continuous
 62
     7
100
AcDbLine
 10
482.7610825295269
 20
300.9936489193249
 30
0.0
 11
482.7610825295269
 21
312.9935951895348
 31
0.0
  0
LINE
  5
D52D
330
36
100
AcDbEntity
  8
_0-0_型材図
  6
Continuous
 62
     7
100
AcDbLine
 10
482.7610825295269
 20
312.9935951895348
 30
0.0
 11
489.7612144974318
 21
312.9935951895348
 31
0.0
  0
LINE
  5
D52E
330
36
100
AcDbEntity
  8
_0-0_型材図
  6
Continuous
 62
     7
100
AcDbLine
 10
481.2610542506891
 20
316.4936611734886
 30
0.0
 11
481.2610542506891
 21
356.4935753943498
 31
0.0
  0
LINE
  5
D52F
330
36
100
AcDbEntity
  8
_0-0_型材図
  6
Continuous
 62
     7
100
AcDbLine
 10
511.2610599064569
 20
316.4936611734886
 30
0.0
 11
511.2610599064569
 21
356.4935753943498
 31
0.0
  0
LINE
  5
D530
330
36
100
AcDbEntity
  8
_0-0_型材図
  6
Continuous
 62
     7
100
AcDbLine
 10
481.2610542506891
 20
316.4936611734886
 30
0.0
 11
511.2610599064569
 21
316.4936611734886
 31
0.0
  0
LINE
  5
D531
330
36
100
AcDbEntity
  8
_0-1_部品
  6
Continuous
 62
     4
100
AcDbLine
 10
459.7612088416645
 20
324.4938119939509
 30
0.0
 11
459.7612088416645
 21
310.493828018625
 31
0.0
  0
LINE
  5
D532
330
36
100
AcDbEntity
  8
_0-1_部品
  6
Continuous
 62
     4
100
AcDbLine
 10
475.760950561621
 20
324.4938119939509
 30
0.0
 11
459.7612088416645
 21
324.4938119939509
 31
0.0
  0
LINE
  5
D533
330
36
100
AcDbEntity
  8
_0-1_部品
  6
Continuous
 62
     4
100
AcDbLine
 10
475.760950561621
 20
310.493828018625
 30
0.0
 11
459.7612088416645
 21
310.493828018625
 31
0.0
  0
LINE
  5
D534
330
36
100
AcDbEntity
  8
_0-1_部品
  6
Continuous
 62
     4
100
AcDbLine
 10
459.7612088416645
 20
310.493828018625
 30
0.0
 11
459.7612088416645
 21
299.4936206404883
 31
0.0
  0
LINE
  5
D535
330
36
100
AcDbEntity
  8
_0-1_部品
  6
Continuous
 62
     4
100
AcDbLine
 10
475.760950561621
 20
299.4936206404883
 30
0.0
 11
459.7612088416645
 21
299.4936206404883
 31
0.0
  0
LINE
  5
D536
330
36
100
AcDbEntity
  8
_0-0_型材図
  6
Continuous
 62
     7
100
AcDbLine
 10
512.7610881852933
 20
73.49355936967526
 30
0.0
 11
511.2610599064569
 21
73.49355936967526
 31
0.0
  0
LINE
  5
D537
330
36
100
AcDbEntity
  8
_0-0_型材図
  6
Continuous
 62
     7
100
AcDbLine
 10
481.2610542506891
 20
73.49355936967526
 30
0.0
 11
479.7610259718526
 21
73.49355936967526
 31
0.0
  0
LINE
  5
D538
330
36
100
AcDbEntity
  8
_0-0_型材図
  6
Continuous
 62
     7
100
AcDbLine
 10
479.7610259718526
 20
87.49354334500116
 30
0.0
 11
481.2610542506891
 21
87.49354334500116
 31
0.0
  0
LINE
  5
D539
330
36
100
AcDbEntity
  8
_0-0_型材図
  6
Continuous
 62
     7
100
AcDbLine
 10
511.2610599064569
 20
87.49354334500116
 30
0.0
 11
512.7610881852933
 21
87.49354334500116
 31
0.0
  0
LINE
  5
D53A
330
36
100
AcDbEntity
  8
_0-0_型材図
  6
Continuous
 62
     7
100
AcDbLine
 10
497.2610759311309
 20
83.49346793476909
 30
0.0
 11
497.2610759311309
 21
81.49371019013894
 31
0.0
  0
LINE
  5
D53B
330
36
100
AcDbEntity
  8
_0-0_型材図
  6
Continuous
 62
     7
100
AcDbLine
 10
495.2610382260154
 20
81.49371019013894
 30
0.0
 11
495.2610382260154
 21
83.49346793476909
 31
0.0
  0
LINE
  5
D53C
330
36
100
AcDbEntity
  8
_0-0_型材図
  6
Continuous
 62
     7
100
AcDbLine
 10
497.2610759311309
 20
83.49346793476909
 30
0.0
 11
511.2610599064569
 21
83.49346793476909
 31
0.0
  0
LINE
  5
D53D
330
36
100
AcDbEntity
  8
_0-0_型材図
  6
Continuous
 62
     7
100
AcDbLine
 10
497.2610759311309
 20
81.49371019013894
 30
0.0
 11
511.2610599064569
 21
81.49371019013894
 31
0.0
  0
LINE
  5
D53E
330
36
100
AcDbEntity
  8
_0-0_型材図
  6
Continuous
 62
     7
100
AcDbLine
 10
512.7610881852933
 20
87.49354334500116
 30
0.0
 11
512.7610881852933
 21
73.49355936967526
 31
0.0
  0
LINE
  5
D53F
330
36
100
AcDbEntity
  8
_0-0_型材図
  6
Continuous
 62
     7
100
AcDbLine
 10
511.2610599064569
 20
87.49354334500116
 30
0.0
 11
511.2610599064569
 21
83.49346793476909
 31
0.0
  0
LINE
  5
D540
330
36
100
AcDbEntity
  8
_0-0_型材図
  6
Continuous
 62
     7
100
AcDbLine
 10
511.2610599064569
 20
81.49371019013894
 30
0.0
 11
511.2610599064569
 21
73.49355936967526
 31
0.0
  0
LINE
  5
D541
330
36
100
AcDbEntity
  8
_0-0_型材図
  6
Continuous
 62
     7
100
AcDbLine
 10
495.2610382260154
 20
83.49346793476909
 30
0.0
 11
481.2610542506891
 21
83.49346793476909
 31
0.0
  0
LINE
  5
D542
330
36
100
AcDbEntity
  8
_0-0_型材図
  6
Continuous
 62
     7
100
AcDbLine
 10
495.2610382260154
 20
81.49371019013894
 30
0.0
 11
481.2610542506891
 21
81.49371019013894
 31
0.0
  0
LINE
  5
D543
330
36
100
AcDbEntity
  8
_0-0_型材図
  6
Continuous
 62
     7
100
AcDbLine
 10
479.7610259718526
 20
73.49355936967526
 30
0.0
 11
479.7610259718526
 21
87.49354334500116
 31
0.0
  0
LINE
  5
D544
330
36
100
AcDbEntity
  8
_0-0_型材図
  6
Continuous
 62
     7
100
AcDbLine
 10
481.2610542506891
 20
73.49355936967526
 30
0.0
 11
481.2610542506891
 21
81.49371019013894
 31
0.0
  0
LINE
  5
D545
330
36
100
AcDbEntity
  8
_0-0_型材図
  6
Continuous
 62
     7
100
AcDbLine
 10
481.2610542506891
 20
83.49346793476909
 30
0.0
 11
481.2610542506891
 21
87.49354334500116
 31
0.0
  0
LINE
  5
D546
330
36
100
AcDbEntity
  8
_0-0_型材図
  6
Continuous
 62
     7
100
AcDbLine
 10
511.2610599064569
 20
83.49346793476909
 30
0.0
 11
511.2610599064569
 21
98.49347076265328
 31
0.0
  0
LINE
  5
D547
330
36
100
AcDbEntity
  8
_0-0_型材図
  6
Continuous
 62
     7
100
AcDbLine
 10
511.2610599064569
 20
98.49347076265328
 30
0.0
 11
501.261151341363
 21
98.49347076265328
 31
0.0
  0
LINE
  5
D548
330
36
100
AcDbEntity
  8
_0-0_型材図
  6
Continuous
 62
     7
100
AcDbLine
 10
501.261151341363
 20
98.49347076265328
 30
0.0
 11
501.261151341363
 21
83.49346793476909
 31
0.0
  0
LINE
  5
D549
330
36
100
AcDbEntity
  8
_0-0_型材図
  6
Continuous
 62
     7
100
AcDbLine
 10
501.261151341363
 20
83.49346793476909
 30
0.0
 11
511.2610599064569
 21
83.49346793476909
 31
0.0
  0
LINE
  5
D54A
330
36
100
AcDbEntity
  8
_0-0_型材図
  6
Continuous
 62
     7
100
AcDbLine
 10
509.76103162762
 20
84.99349621360648
 30
0.0
 11
509.76103162762
 21
96.99372244430129
 31
0.0
  0
LINE
  5
D54B
330
36
100
AcDbEntity
  8
_0-0_型材図
  6
Continuous
 62
     7
100
AcDbLine
 10
509.76103162762
 20
96.99372244430129
 30
0.0
 11
502.7611796201995
 21
96.99372244430129
 31
0.0
  0
LINE
  5
D54C
330
36
100
AcDbEntity
  8
_0-0_型材図
  6
Continuous
 62
     7
100
AcDbLine
 10
502.7611796201995
 20
96.99372244430129
 30
0.0
 11
502.7611796201995
 21
84.99349621360648
 31
0.0
  0
LINE
  5
D54D
330
36
100
AcDbEntity
  8
_0-0_型材図
  6
Continuous
 62
     7
100
AcDbLine
 10
502.7611796201995
 20
84.99349621360648
 30
0.0
 11
509.76103162762
 21
84.99349621360648
 31
0.0
  0
LINE
  5
D54E
330
36
100
AcDbEntity
  8
_0-0_型材図
  6
Continuous
 62
     7
100
AcDbLine
 10
491.2609628157842
 20
83.49346793476909
 30
0.0
 11
491.2609628157842
 21
98.49347076265328
 31
0.0
  0
LINE
  5
D54F
330
36
100
AcDbEntity
  8
_0-0_型材図
  6
Continuous
 62
     7
100
AcDbLine
 10
491.2609628157842
 20
98.49347076265328
 30
0.0
 11
481.2610542506891
 21
98.49347076265328
 31
0.0
  0
LINE
  5
D550
330
36
100
AcDbEntity
  8
_0-0_型材図
  6
Continuous
 62
     7
100
AcDbLine
 10
481.2610542506891
 20
98.49347076265328
 30
0.0
 11
481.2610542506891
 21
83.49346793476909
 31
0.0
  0
LINE
  5
D551
330
36
100
AcDbEntity
  8
_0-0_型材図
  6
Continuous
 62
     7
100
AcDbLine
 10
481.2610542506891
 20
83.49346793476909
 30
0.0
 11
491.2609628157842
 21
83.49346793476909
 31
0.0
  0
LINE
  5
D552
330
36
100
AcDbEntity
  8
_0-0_型材図
  6
Continuous
 62
     7
100
AcDbLine
 10
489.7612144974318
 20
84.99349621360648
 30
0.0
 11
489.7612144974318
 21
96.99372244430129
 31
0.0
  0
LINE
  5
D553
330
36
100
AcDbEntity
  8
_0-0_型材図
  6
Continuous
 62
     7
100
AcDbLine
 10
489.7612144974318
 20
96.99372244430129
 30
0.0
 11
482.7610825295269
 21
96.99372244430129
 31
0.0
  0
LINE
  5
D554
330
36
100
AcDbEntity
  8
_0-0_型材図
  6
Continuous
 62
     7
100
AcDbLine
 10
482.7610825295269
 20
96.99372244430129
 30
0.0
 11
482.7610825295269
 21
84.99349621360648
 31
0.0
  0
LINE
  5
D555
330
36
100
AcDbEntity
  8
_0-0_型材図
  6
Continuous
 62
     7
100
AcDbLine
 10
482.7610825295269
 20
84.99349621360648
 30
0.0
 11
489.7612144974318
 21
84.99349621360648
 31
0.0
  0
LINE
  5
D556
330
36
100
AcDbEntity
  8
_0-0_型材図
  6
Continuous
 62
     7
100
AcDbLine
 10
481.2610542506891
 20
81.49371019013894
 30
0.0
 11
481.2610542506891
 21
41.49351600879277
 31
0.0
  0
LINE
  5
D557
330
36
100
AcDbEntity
  8
_0-0_型材図
  6
Continuous
 62
     7
100
AcDbLine
 10
511.2610599064569
 20
81.49371019013894
 30
0.0
 11
511.2610599064569
 21
41.49351600879277
 31
0.0
  0
LINE
  5
D558
330
36
100
AcDbEntity
  8
_0-0_型材図
  6
Continuous
 62
     7
100
AcDbLine
 10
481.2610542506891
 20
81.49371019013894
 30
0.0
 11
511.2610599064569
 21
81.49371019013894
 31
0.0
  0
LINE
  5
D559
330
36
100
AcDbEntity
  8
_0-1_部品
  6
Continuous
 62
     4
100
AcDbLine
 10
459.7612088416645
 20
98.49347076265328
 30
0.0
 11
459.7612088416645
 21
83.49346793476909
 31
0.0
  0
LINE
  5
D55A
330
36
100
AcDbEntity
  8
_0-1_部品
  6
Continuous
 62
     4
100
AcDbLine
 10
475.760950561621
 20
98.49347076265328
 30
0.0
 11
459.7612088416645
 21
98.49347076265328
 31
0.0
  0
LINE
  5
D55B
330
36
100
AcDbEntity
  8
_0-1_部品
  6
Continuous
 62
     4
100
AcDbLine
 10
475.760950561621
 20
83.49346793476909
 30
0.0
 11
459.7612088416645
 21
83.49346793476909
 31
0.0
  0
LINE
  5
D55C
330
36
100
AcDbEntity
  8
_0-1_部品
  6
Continuous
 62
     4
100
AcDbLine
 10
459.7612088416645
 20
83.49346793476909
 30
0.0
 11
459.7612088416645
 21
73.49355936967526
 31
0.0
  0
LINE
  5
D55D
330
36
100
AcDbEntity
  8
_0-1_部品
  6
Continuous
 62
     4
100
AcDbLine
 10
475.760950561621
 20
73.49355936967526
 30
0.0
 11
459.7612088416645
 21
73.49355936967526
 31
0.0
  0
LINE
  5
D55E
330
36
100
AcDbEntity
  8
_0-1_部品
  6
Continuous
 62
     4
100
AcDbLine
 10
481.2610542506891
 20
299.4936206404883
 30
0.0
 11
481.2610542506891
 21
98.49347076265328
 31
0.0
  0
LINE
  5
D55F
330
36
100
AcDbEntity
  8
_0-1_部品
  6
Continuous
 62
     4
100
AcDbLine
 10
491.2609628157842
 20
299.4936206404883
 30
0.0
 11
491.2609628157842
 21
98.49347076265328
 31
0.0
  0
LINE
  5
D560
330
36
100
AcDbEntity
  8
_0-1_部品
  6
Continuous
 62
     4
100
AcDbLine
 10
501.261151341363
 20
299.4936206404883
 30
0.0
 11
501.261151341363
 21
98.49347076265328
 31
0.0
  0
LINE
  5
D561
330
36
100
AcDbEntity
  8
_0-1_部品
  6
Continuous
 62
     4
100
AcDbLine
 10
511.2610599064569
 20
299.4936206404883
 30
0.0
 11
511.2610599064569
 21
98.49347076265328
 31
0.0
  0
LINE
  5
D562
330
36
100
AcDbEntity
  8
_0-1_部品
  6
Continuous
 62
     4
100
AcDbLine
 10
481.2610542506891
 20
198.9936856818128
 30
0.0
 11
491.2609628157842
 21
198.9936856818128
 31
0.0
  0
LINE
  5
D563
330
36
100
AcDbEntity
  8
_0-1_部品
  6
Continuous
 62
     4
100
AcDbLine
 10
501.261151341363
 20
198.9936856818128
 30
0.0
 11
511.2610599064569
 21
198.9936856818128
 31
0.0
  0
LINE
  5
D564
330
36
100
AcDbEntity
  8
_0-1_部品
  6
Continuous
 62
     4
100
AcDbLine
 10
491.2609628157842
 20
198.9936856818128
 30
0.0
 11
501.261151341363
 21
198.9936856818128
 31
0.0
  0
LINE
  5
D565
330
36
100
AcDbEntity
  8
_0-5_その他
  6
Continuous
 62
     4
100
AcDbLine
 10
531.2611569971295
 20
299.4936206404883
 30
0.0
 11
532.8140978076389
 21
293.6981586397044
 31
0.0
  0
LINE
  5
D566
330
36
100
AcDbEntity
  8
_0-5_その他
  6
Continuous
 62
     4
100
AcDbLine
 10
531.2611569971295
 20
299.4936206404883
 30
0.0
 11
529.708216186621
 21
293.6981586397044
 31
0.0
  0
LINE
  5
D567
330
36
100
AcDbEntity
  8
_0-5_その他
  6
Continuous
 62
     4
100
AcDbLine
 10
531.2611569971295
 20
208.8788104480416
 30
0.0
 11
531.2611569971295
 21
299.4936206404883
 31
0.0
  0
LINE
  5
D568
330
36
100
AcDbEntity
  8
_0-5_その他
  6
Continuous
 62
     4
100
AcDbLine
 10
546.2611598250132
 20
316.4936611734886
 30
0.0
 11
547.8141006355226
 21
310.6981991727032
 31
0.0
  0
LINE
  5
D569
330
36
100
AcDbEntity
  8
_0-5_その他
  6
Continuous
 62
     4
100
AcDbLine
 10
546.2611598250132
 20
316.4936611734886
 30
0.0
 11
544.7082190145047
 21
310.6981991727032
 31
0.0
  0
LINE
  5
D56A
330
36
100
AcDbEntity
  8
_0-5_その他
  6
Continuous
 62
     4
100
AcDbLine
 10
531.2611569971295
 20
98.49347076265328
 30
0.0
 11
529.708216186621
 21
104.2892127239227
 31
0.0
  0
LINE
  5
D56B
330
36
100
AcDbEntity
  8
_0-5_その他
  6
Continuous
 62
     4
100
AcDbLine
 10
531.2611569971295
 20
98.49347076265328
 30
0.0
 11
532.8140978076389
 21
104.2892127239227
 31
0.0
  0
LINE
  5
D56C
330
36
100
AcDbEntity
  8
_0-5_その他
  6
Continuous
 62
     4
100
AcDbLine
 10
531.2611569971295
 20
98.49347076265328
 30
0.0
 11
531.2611569971295
 21
188.8787133573689
 31
0.0
  0
LINE
  5
D56D
330
36
100
AcDbEntity
  8
_0-5_その他
  6
Continuous
 62
     4
100
AcDbLine
 10
546.2611598250132
 20
81.49371019013894
 30
0.0
 11
544.7082190145047
 21
87.28917219092293
 31
0.0
  0
LINE
  5
D56E
330
36
100
AcDbEntity
  8
_0-5_その他
  6
Continuous
 62
     4
100
AcDbLine
 10
546.2611598250132
 20
81.49371019013894
 30
0.0
 11
547.8141006355226
 21
87.28917219092293
 31
0.0
  0
LINE
  5
D56F
330
36
100
AcDbEntity
  8
_0-3_仕上
  6
Continuous
 62
     4
100
AcDbLine
 10
511.2610599064569
 20
299.4936206404883
 30
0.0
 11
531.2611569971295
 21
299.4936206404883
 31
0.0
  0
LINE
  5
D570
330
36
100
AcDbEntity
  8
_0-3_仕上
  6
Continuous
 62
     4
100
AcDbLine
 10
511.2610599064569
 20
98.49347076265328
 30
0.0
 11
531.2611569971295
 21
98.49347076265328
 31
0.0
  0
LINE
  5
D571
330
36
100
AcDbEntity
  8
_0-3_仕上
  6
Continuous
 62
     4
100
AcDbLine
 10
511.2610599064569
 20
81.49371019013894
 30
0.0
 11
546.2611598250132
 21
81.49371019013894
 31
0.0
  0
LINE
  5
D572
330
36
100
AcDbEntity
  8
_0-3_仕上
  6
Continuous
 62
     4
100
AcDbLine
 10
511.2610599064569
 20
316.4936611734886
 30
0.0
 11
546.2611598250132
 21
316.4936611734886
 31
0.0
  0
LINE
  5
D573
330
36
100
AcDbEntity
  8
_0-0_型材図
  6
Continuous
 62
     7
100
AcDbLine
 10
483.2610919558056
 20
81.49371019013894
 30
0.0
 11
483.2610919558056
 21
41.49351600879277
 31
0.0
  0
LINE
  5
D574
330
36
100
AcDbEntity
  8
_0-0_型材図
  6
Continuous
 62
     7
100
AcDbLine
 10
509.2610222013409
 20
81.49371019013894
 30
0.0
 11
509.2610222013409
 21
41.49351600879277
 31
0.0
  0
LINE
  5
D575
330
36
100
AcDbEntity
  8
_0-0_型材図
  6
Continuous
 62
     7
100
AcDbLine
 10
483.2610919558056
 20
51.49370453437153
 30
0.0
 11
509.2610222013409
 21
51.49370453437153
 31
0.0
  0
LINE
  5
D576
330
36
100
AcDbEntity
  8
_0-0_型材図
  6
Continuous
 62
     7
100
AcDbLine
 10
483.2610919558056
 20
81.49371019013894
 30
0.0
 11
509.2610222013409
 21
51.49370453437153
 31
0.0
  0
LINE
  5
D577
330
36
100
AcDbEntity
  8
_0-0_型材図
  6
Continuous
 62
     7
100
AcDbLine
 10
483.2610919558056
 20
51.49370453437153
 30
0.0
 11
509.2610222013409
 21
81.49371019013894
 31
0.0
  0
LINE
  5
D578
330
36
100
AcDbEntity
  8
_0-0_型材図
  6
Continuous
 62
     7
100
AcDbLine
 10
483.2610919558056
 20
316.4936611734886
 30
0.0
 11
483.2610919558056
 21
356.4935753943498
 31
0.0
  0
LINE
  5
D579
330
36
100
AcDbEntity
  8
_0-0_型材図
  6
Continuous
 62
     7
100
AcDbLine
 10
509.2610222013409
 20
316.4936611734886
 30
0.0
 11
509.2610222013409
 21
356.4935753943498
 31
0.0
  0
LINE
  5
D57A
330
36
100
AcDbEntity
  8
_0-0_型材図
  6
Continuous
 62
     7
100
AcDbLine
 10
483.2610919558056
 20
346.4936668292555
 30
0.0
 11
509.2610222013409
 21
346.4936668292555
 31
0.0
  0
LINE
  5
D57B
330
36
100
AcDbEntity
  8
_0-0_型材図
  6
Continuous
 62
     7
100
AcDbLine
 10
509.2610222013409
 20
346.4936668292555
 30
0.0
 11
483.2610919558056
 21
316.4936611734886
 31
0.0
  0
LINE
  5
D57C
330
36
100
AcDbEntity
  8
_0-0_型材図
  6
Continuous
 62
     7
100
AcDbLine
 10
483.2610919558056
 20
346.4936668292555
 30
0.0
 11
509.2610222013409
 21
316.4936611734886
 31
0.0
  0
LINE
  5
D57D
330
36
100
AcDbEntity
  8
_0-2_寸法
  6
Continuous
 62
     4
100
AcDbLine
 10
481.2610542506891
 20
41.49351600879277
 30
0.0
 11
511.2610599064569
 21
41.49351600879277
 31
0.0
  0
LINE
  5
D57E
330
36
100
AcDbEntity
  8
_0-0_型材図
  6
Continuous
 62
     7
100
AcDbLine
 10
351.2611230625262
 20
83.49346793476909
 30
0.0
 11
381.2611287182932
 21
83.49346793476909
 31
0.0
  0
LINE
  5
D57F
330
36
100
AcDbEntity
  8
_0-2_寸法
  6
Continuous
 62
     7
100
AcDbLine
 10
351.2611230625262
 20
297.9935923616515
 30
0.0
 11
351.2611230625262
 21
312.9935951895348
 31
0.0
  0
LINE
  5
D580
330
36
100
AcDbEntity
  8
_0-2_寸法
  6
Continuous
 62
     7
100
AcDbLine
 10
381.2611287182932
 20
312.9935951895348
 30
0.0
 11
381.2611287182932
 21
297.9935923616515
 31
0.0
  0
LINE
  5
D581
330
36
100
AcDbEntity
  8
_0-2_寸法
  6
Continuous
 62
     7
100
AcDbLine
 10
353.2611607676417
 20
310.9935574844196
 30
0.0
 11
379.2610910131775
 21
310.9935574844196
 31
0.0
  0
LINE
  5
D582
330
36
100
AcDbEntity
  8
_0-2_寸法
  6
Continuous
 62
     7
100
AcDbLine
 10
353.2611607676417
 20
297.9935923616515
 30
0.0
 11
353.2611607676417
 21
310.9935574844196
 31
0.0
  0
LINE
  5
D583
330
36
100
AcDbEntity
  8
_0-2_寸法
  6
Continuous
 62
     7
100
AcDbLine
 10
353.2611607676417
 20
297.9935923616515
 30
0.0
 11
351.2611230625262
 21
297.9935923616515
 31
0.0
  0
LINE
  5
D584
330
36
100
AcDbEntity
  8
_0-2_寸法
  6
Continuous
 62
     7
100
AcDbLine
 10
379.2610910131775
 20
310.9935574844196
 30
0.0
 11
379.2610910131775
 21
297.9935923616515
 31
0.0
  0
LINE
  5
D585
330
36
100
AcDbEntity
  8
_0-2_寸法
  6
Continuous
 62
     7
100
AcDbLine
 10
381.2611287182932
 20
297.9935923616515
 30
0.0
 11
379.2610910131775
 21
297.9935923616515
 31
0.0
  0
LINE
  5
D586
330
36
100
AcDbEntity
  8
_0-2_寸法
  6
Continuous
 62
     7
100
AcDbLine
 10
351.2611230625262
 20
99.99349904148971
 30
0.0
 11
351.2611230625262
 21
84.99349621360648
 31
0.0
  0
LINE
  5
D587
330
36
100
AcDbEntity
  8
_0-2_寸法
  6
Continuous
 62
     7
100
AcDbLine
 10
381.2611287182932
 20
84.99349621360648
 30
0.0
 11
381.2611287182932
 21
99.99349904148971
 31
0.0
  0
LINE
  5
D588
330
36
100
AcDbEntity
  8
_0-2_寸法
  6
Continuous
 62
     7
100
AcDbLine
 10
353.2611607676417
 20
86.99353391872206
 30
0.0
 11
379.2610910131775
 21
86.99353391872206
 31
0.0
  0
LINE
  5
D589
330
36
100
AcDbEntity
  8
_0-2_寸法
  6
Continuous
 62
     7
100
AcDbLine
 10
353.2611607676417
 20
99.99349904148971
 30
0.0
 11
353.2611607676417
 21
86.99353391872206
 31
0.0
  0
LINE
  5
D58A
330
36
100
AcDbEntity
  8
_0-2_寸法
  6
Continuous
 62
     7
100
AcDbLine
 10
353.2611607676417
 20
99.99349904148971
 30
0.0
 11
351.2611230625262
 21
99.99349904148971
 31
0.0
  0
LINE
  5
D58B
330
36
100
AcDbEntity
  8
_0-2_寸法
  6
Continuous
 62
     7
100
AcDbLine
 10
379.2610910131775
 20
86.99353391872206
 30
0.0
 11
379.2610910131775
 21
99.99349904148971
 31
0.0
  0
LINE
  5
D58C
330
36
100
AcDbEntity
  8
_0-2_寸法
  6
Continuous
 62
     7
100
AcDbLine
 10
381.2611287182932
 20
99.99349904148971
 30
0.0
 11
379.2610910131775
 21
99.99349904148971
 31
0.0
  0
LINE
  5
D58D
330
36
100
AcDbEntity
  8
_0-1_部品
  6
Continuous
 62
     4
100
AcDbLine
 10
351.2611230625262
 20
297.9935923616515
 30
0.0
 11
351.2611230625262
 21
99.99349904148971
 31
0.0
  0
LINE
  5
D58E
330
36
100
AcDbEntity
  8
_0-1_部品
  6
Continuous
 62
     4
100
AcDbLine
 10
381.2611287182932
 20
297.9935923616515
 30
0.0
 11
381.2611287182932
 21
99.99349904148971
 31
0.0
  0
LINE
  5
D58F
330
36
100
AcDbEntity
  8
_0-1_部品
  6
Continuous
 62
     7
100
AcDbLine
 10
378.7610815868983
 20
310.9935574844196
 30
0.0
 11
378.7610815868983
 21
295.9935546565364
 31
0.0
  0
LINE
  5
D590
330
36
100
AcDbEntity
  8
_0-1_部品
  6
Continuous
 62
     7
100
AcDbLine
 10
353.7611701939204
 20
295.9935546565364
 30
0.0
 11
353.7611701939204
 21
310.9935574844196
 31
0.0
  0
LINE
  5
D591
330
36
100
AcDbEntity
  8
_0-1_部品
  6
Continuous
 62
     7
100
AcDbLine
 10
353.7611701939204
 20
310.9935574844196
 30
0.0
 11
378.7610815868983
 21
310.9935574844196
 31
0.0
  0
LINE
  5
D592
330
36
100
AcDbEntity
  8
_0-1_部品
  6
Continuous
 62
     7
100
AcDbLine
 10
355.7612078990369
 20
308.9935197793037
 30
0.0
 11
376.7613238422673
 21
308.9935197793037
 31
0.0
  0
LINE
  5
D593
330
36
100
AcDbEntity
  8
_0-1_部品
  6
Continuous
 62
     7
100
AcDbLine
 10
376.7613238422673
 20
308.9935197793037
 30
0.0
 11
376.7613238422673
 21
295.9935546565364
 31
0.0
  0
LINE
  5
D594
330
36
100
AcDbEntity
  8
_0-1_部品
  6
Continuous
 62
     7
100
AcDbLine
 10
378.7610815868983
 20
295.9935546565364
 30
0.0
 11
376.7613238422673
 21
295.9935546565364
 31
0.0
  0
LINE
  5
D595
330
36
100
AcDbEntity
  8
_0-1_部品
  6
Continuous
 62
     7
100
AcDbLine
 10
355.7612078990369
 20
295.9935546565364
 30
0.0
 11
355.7612078990369
 21
308.9935197793037
 31
0.0
  0
LINE
  5
D596
330
36
100
AcDbEntity
  8
_0-1_部品
  6
Continuous
 62
     7
100
AcDbLine
 10
355.7612078990369
 20
295.9935546565364
 30
0.0
 11
353.7611701939204
 21
295.9935546565364
 31
0.0
  0
LINE
  5
D597
330
36
100
AcDbEntity
  8
_0-1_部品
  6
Continuous
 62
     7
100
AcDbLine
 10
353.7611701939204
 20
86.99353391872206
 30
0.0
 11
353.7611701939204
 21
101.9935367466053
 31
0.0
  0
LINE
  5
D598
330
36
100
AcDbEntity
  8
_0-1_部品
  6
Continuous
 62
     7
100
AcDbLine
 10
378.7610815868983
 20
101.9935367466053
 30
0.0
 11
378.7610815868983
 21
86.99353391872206
 31
0.0
  0
LINE
  5
D599
330
36
100
AcDbEntity
  8
_0-1_部品
  6
Continuous
 62
     7
100
AcDbLine
 10
378.7610815868983
 20
86.99353391872206
 30
0.0
 11
353.7611701939204
 21
86.99353391872206
 31
0.0
  0
LINE
  5
D59A
330
36
100
AcDbEntity
  8
_0-1_部品
  6
Continuous
 62
     7
100
AcDbLine
 10
376.7613238422673
 20
88.99357162383806
 30
0.0
 11
355.7612078990369
 21
88.99357162383806
 31
0.0
  0
LINE
  5
D59B
330
36
100
AcDbEntity
  8
_0-1_部品
  6
Continuous
 62
     7
100
AcDbLine
 10
355.7612078990369
 20
88.99357162383806
 30
0.0
 11
355.7612078990369
 21
101.9935367466053
 31
0.0
  0
LINE
  5
D59C
330
36
100
AcDbEntity
  8
_0-1_部品
  6
Continuous
 62
     7
100
AcDbLine
 10
353.7611701939204
 20
101.9935367466053
 30
0.0
 11
355.7612078990369
 21
101.9935367466053
 31
0.0
  0
LINE
  5
D59D
330
36
100
AcDbEntity
  8
_0-1_部品
  6
Continuous
 62
     7
100
AcDbLine
 10
376.7613238422673
 20
101.9935367466053
 30
0.0
 11
376.7613238422673
 21
88.99357162383806
 31
0.0
  0
LINE
  5
D59E
330
36
100
AcDbEntity
  8
_0-1_部品
  6
Continuous
 62
     7
100
AcDbLine
 10
376.7613238422673
 20
101.9935367466053
 30
0.0
 11
378.7610815868983
 21
101.9935367466053
 31
0.0
  0
LINE
  5
D59F
330
36
100
AcDbEntity
  8
_0-2_寸法
  6
Continuous
 62
     7
100
AcDbLine
 10
371.8863719162901
 20
298.4782039612535
 30
0.0
 11
371.136357776872
 21
297.1791873106738
 31
0.0
  0
LINE
  5
D5A0
330
36
100
AcDbEntity
  8
_0-2_寸法
  6
Continuous
 62
     7
100
AcDbLine
 10
368.7611730218047
 20
302.1935595582011
 30
0.0
 11
368.7611730218047
 21
303.9937054769987
 31
0.0
  0
LINE
  5
D5A1
330
36
100
AcDbEntity
  8
_0-2_寸法
  6
Continuous
 62
     7
100
AcDbLine
 10
368.7611730218047
 20
303.9937054769987
 30
0.0
 11
376.7613238422673
 21
303.9937054769987
 31
0.0
  0
LINE
  5
D5A2
330
36
100
AcDbEntity
  8
_0-2_寸法
  6
Continuous
 62
     7
100
AcDbLine
 10
373.6361249477814
 20
298.4782039612535
 30
0.0
 11
374.3861390871998
 21
297.1791873106738
 31
0.0
  0
LINE
  5
D5A3
330
36
100
AcDbEntity
  8
_0-2_寸法
  6
Continuous
 62
     7
100
AcDbLine
 10
370.368986087381
 20
302.1935595582011
 30
0.0
 11
368.7611730218047
 21
302.1935595582011
 31
0.0
  0
LINE
  5
D5A4
330
36
100
AcDbEntity
  8
_0-2_寸法
  6
Continuous
 62
     7
100
AcDbLine
 10
360.6361598250132
 20
257.5093465016728
 30
0.0
 11
361.3861739644321
 21
258.8083631522529
 31
0.0
  0
LINE
  5
D5A5
330
36
100
AcDbEntity
  8
_0-2_寸法
  6
Continuous
 62
     7
100
AcDbLine
 10
363.7613587195001
 20
253.7937109442407
 30
0.0
 11
363.7613587195001
 21
251.9935650254427
 31
0.0
  0
LINE
  5
D5A6
330
36
100
AcDbEntity
  8
_0-2_寸法
  6
Continuous
 62
     7
100
AcDbLine
 10
363.7613587195001
 20
251.9935650254427
 30
0.0
 11
355.7612078990369
 21
251.9935650254427
 31
0.0
  0
LINE
  5
D5A7
330
36
100
AcDbEntity
  8
_0-2_寸法
  6
Continuous
 62
     7
100
AcDbLine
 10
362.1532656934378
 20
253.7937109442407
 30
0.0
 11
363.7613587195001
 21
253.7937109442407
 31
0.0
  0
LINE
  5
D5A8
330
36
100
AcDbEntity
  8
_0-2_寸法
  6
Continuous
 62
     7
100
AcDbLine
 10
358.8861268330373
 20
257.5093465016728
 30
0.0
 11
358.136112693619
 21
258.8083631522529
 31
0.0
  0
LINE
  5
D5A9
330
36
100
AcDbEntity
  8
_0-2_寸法
  6
Continuous
 62
     7
100
AcDbLine
 10
355.7612078990369
 20
263.9982706238977
 30
0.0
 11
355.7612078990369
 21
251.9935650254427
 31
0.0
  0
LINE
  5
D5AA
330
36
100
AcDbEntity
  8
_0-2_寸法
  6
Continuous
 62
     7
100
AcDbLine
 10
357.561353817835
 20
263.4489881522529
 30
0.0
 11
357.561353817835
 21
258.3859027803289
 31
0.0
  0
LINE
  5
D5AB
330
36
100
AcDbEntity
  8
_0-2_寸法
  6
Continuous
 62
     7
100
AcDbLine
 10
374.9611779234692
 20
292.5382823501893
 30
0.0
 11
374.9611779234692
 21
297.6013677221128
 31
0.0
  0
LINE
  5
D5AC
330
36
100
AcDbEntity
  8
_0-2_寸法
  6
Continuous
 62
     7
100
AcDbLine
 10
374.9611779234692
 20
292.5382823501893
 30
0.0
 11
355.7612078990369
 21
263.9982706238977
 31
0.0
  0
LINE
  5
D5AD
330
36
100
AcDbEntity
  8
_0-2_寸法
  6
Continuous
 62
     7
100
AcDbLine
 10
376.7613238422673
 20
291.9889998785436
 30
0.0
 11
357.561353817835
 21
263.4489881522529
 31
0.0
  0
LINE
  5
D5AE
330
36
100
AcDbEntity
  8
_0-2_寸法
  6
Continuous
 62
     7
100
AcDbLine
 10
376.7613238422673
 20
291.9889998785436
 30
0.0
 11
376.7613238422673
 21
303.9937054769987
 31
0.0
  0
LINE
  5
D5AF
330
36
100
AcDbEntity
  8
_0-2_寸法
  6
Continuous
 62
     7
100
AcDbLine
 10
371.8863719162901
 20
258.4780097799073
 30
0.0
 11
371.136357776872
 21
257.1789931293285
 31
0.0
  0
LINE
  5
D5B0
330
36
100
AcDbEntity
  8
_0-2_寸法
  6
Continuous
 62
     7
100
AcDbLine
 10
368.7611730218047
 20
262.1936453373394
 30
0.0
 11
368.7611730218047
 21
263.993511295653
 31
0.0
  0
LINE
  5
D5B1
330
36
100
AcDbEntity
  8
_0-2_寸法
  6
Continuous
 62
     7
100
AcDbLine
 10
368.7611730218047
 20
263.993511295653
 30
0.0
 11
376.7613238422673
 21
263.993511295653
 31
0.0
  0
LINE
  5
D5B2
330
36
100
AcDbEntity
  8
_0-2_寸法
  6
Continuous
 62
     7
100
AcDbLine
 10
373.6361249477814
 20
258.4780097799073
 30
0.0
 11
374.3861390871998
 21
257.1789931293285
 31
0.0
  0
LINE
  5
D5B3
330
36
100
AcDbEntity
  8
_0-2_寸法
  6
Continuous
 62
     7
100
AcDbLine
 10
370.368986087381
 20
262.1936453373394
 30
0.0
 11
368.7611730218047
 21
262.1936453373394
 31
0.0
  0
LINE
  5
D5B4
330
36
100
AcDbEntity
  8
_0-2_寸法
  6
Continuous
 62
     7
100
AcDbLine
 10
360.6361598250132
 20
217.5091523203271
 30
0.0
 11
361.3861739644321
 21
218.8081689709059
 31
0.0
  0
LINE
  5
D5B5
330
36
100
AcDbEntity
  8
_0-2_寸法
  6
Continuous
 62
     7
100
AcDbLine
 10
363.7613587195001
 20
213.7935167628941
 30
0.0
 11
363.7613587195001
 21
211.9936508045814
 31
0.0
  0
LINE
  5
D5B6
330
36
100
AcDbEntity
  8
_0-2_寸法
  6
Continuous
 62
     7
100
AcDbLine
 10
363.7613587195001
 20
211.9936508045814
 30
0.0
 11
355.7612078990369
 21
211.9936508045814
 31
0.0
  0
LINE
  5
D5B7
330
36
100
AcDbEntity
  8
_0-2_寸法
  6
Continuous
 62
     7
100
AcDbLine
 10
362.1532656934378
 20
213.7935167628941
 30
0.0
 11
363.7613587195001
 21
213.7935167628941
 31
0.0
  0
LINE
  5
D5B8
330
36
100
AcDbEntity
  8
_0-2_寸法
  6
Continuous
 62
     7
100
AcDbLine
 10
358.8861268330373
 20
217.5091523203271
 30
0.0
 11
358.136112693619
 21
218.8081689709059
 31
0.0
  0
LINE
  5
D5B9
330
36
100
AcDbEntity
  8
_0-2_寸法
  6
Continuous
 62
     7
100
AcDbLine
 10
355.7612078990369
 20
223.998076442552
 30
0.0
 11
355.7612078990369
 21
211.9936508045814
 31
0.0
  0
LINE
  5
D5BA
330
36
100
AcDbEntity
  8
_0-2_寸法
  6
Continuous
 62
     7
100
AcDbLine
 10
357.561353817835
 20
223.4490739313908
 30
0.0
 11
357.561353817835
 21
218.3857085989832
 31
0.0
  0
LINE
  5
D5BB
330
36
100
AcDbEntity
  8
_0-2_寸法
  6
Continuous
 62
     7
100
AcDbLine
 10
374.9611779234692
 20
252.5380881688427
 30
0.0
 11
374.9611779234692
 21
257.6014535012512
 31
0.0
  0
LINE
  5
D5BC
330
36
100
AcDbEntity
  8
_0-2_寸法
  6
Continuous
 62
     7
100
AcDbLine
 10
374.9611779234692
 20
252.5380881688427
 30
0.0
 11
355.7612078990369
 21
223.998076442552
 31
0.0
  0
LINE
  5
D5BD
330
36
100
AcDbEntity
  8
_0-2_寸法
  6
Continuous
 62
     7
100
AcDbLine
 10
376.7613238422673
 20
251.9890856576819
 30
0.0
 11
357.561353817835
 21
223.4490739313908
 31
0.0
  0
LINE
  5
D5BE
330
36
100
AcDbEntity
  8
_0-2_寸法
  6
Continuous
 62
     7
100
AcDbLine
 10
376.7613238422673
 20
251.9890856576819
 30
0.0
 11
376.7613238422673
 21
263.993511295653
 31
0.0
  0
LINE
  5
D5BF
330
36
100
AcDbEntity
  8
_0-2_寸法
  6
Continuous
 62
     7
100
AcDbLine
 10
371.8863719162901
 20
218.4780955590452
 30
0.0
 11
371.136357776872
 21
217.1790789084659
 31
0.0
  0
LINE
  5
D5C0
330
36
100
AcDbEntity
  8
_0-2_寸法
  6
Continuous
 62
     7
100
AcDbLine
 10
368.7611730218047
 20
222.1937311164781
 30
0.0
 11
368.7611730218047
 21
223.9935970747913
 31
0.0
  0
LINE
  5
D5C1
330
36
100
AcDbEntity
  8
_0-2_寸法
  6
Continuous
 62
     7
100
AcDbLine
 10
368.7611730218047
 20
223.9935970747913
 30
0.0
 11
376.7613238422673
 21
223.9935970747913
 31
0.0
  0
LINE
  5
D5C2
330
36
100
AcDbEntity
  8
_0-2_寸法
  6
Continuous
 62
     7
100
AcDbLine
 10
373.6361249477814
 20
218.4780955590452
 30
0.0
 11
374.3861390871998
 21
217.1790789084659
 31
0.0
  0
LINE
  5
D5C3
330
36
100
AcDbEntity
  8
_0-2_寸法
  6
Continuous
 62
     7
100
AcDbLine
 10
370.368986087381
 20
222.1937311164781
 30
0.0
 11
368.7611730218047
 21
222.1937311164781
 31
0.0
  0
LINE
  5
D5C4
330
36
100
AcDbEntity
  8
_0-2_寸法
  6
Continuous
 62
     7
100
AcDbLine
 10
360.6361598250132
 20
177.5092380994649
 30
0.0
 11
361.3861739644321
 21
178.8082547500451
 31
0.0
  0
LINE
  5
D5C5
330
36
100
AcDbEntity
  8
_0-2_寸法
  6
Continuous
 62
     7
100
AcDbLine
 10
363.7613587195001
 20
173.7936025420329
 30
0.0
 11
363.7613587195001
 21
171.9937365837193
 31
0.0
  0
LINE
  5
D5C6
330
36
100
AcDbEntity
  8
_0-2_寸法
  6
Continuous
 62
     7
100
AcDbLine
 10
363.7613587195001
 20
171.9937365837193
 30
0.0
 11
355.7612078990369
 21
171.9937365837193
 31
0.0
  0
LINE
  5
D5C7
330
36
100
AcDbEntity
  8
_0-2_寸法
  6
Continuous
 62
     7
100
AcDbLine
 10
362.1532656934378
 20
173.7936025420329
 30
0.0
 11
363.7613587195001
 21
173.7936025420329
 31
0.0
  0
LINE
  5
D5C8
330
36
100
AcDbEntity
  8
_0-2_寸法
  6
Continuous
 62
     7
100
AcDbLine
 10
358.8861268330373
 20
177.5092380994649
 30
0.0
 11
358.136112693619
 21
178.8082547500451
 31
0.0
  0
LINE
  5
D5C9
330
36
100
AcDbEntity
  8
_0-2_寸法
  6
Continuous
 62
     7
100
AcDbLine
 10
355.7612078990369
 20
183.9981622216899
 30
0.0
 11
355.7612078990369
 21
171.9937365837193
 31
0.0
  0
LINE
  5
D5CA
330
36
100
AcDbEntity
  8
_0-2_寸法
  6
Continuous
 62
     7
100
AcDbLine
 10
357.561353817835
 20
183.4491597105295
 30
0.0
 11
357.561353817835
 21
178.3857943781215
 31
0.0
  0
LINE
  5
D5CB
330
36
100
AcDbEntity
  8
_0-2_寸法
  6
Continuous
 62
     7
100
AcDbLine
 10
374.9611779234692
 20
212.5381739479815
 30
0.0
 11
374.9611779234692
 21
217.6015392803895
 31
0.0
  0
LINE
  5
D5CC
330
36
100
AcDbEntity
  8
_0-2_寸法
  6
Continuous
 62
     7
100
AcDbLine
 10
376.7613238422673
 20
211.9891714368212
 30
0.0
 11
376.7613238422673
 21
223.9935970747913
 31
0.0
  0
LINE
  5
D5CD
330
36
100
AcDbEntity
  8
_0-2_寸法
  6
Continuous
 62
     7
100
AcDbLine
 10
371.8863719162901
 20
178.4781813381844
 30
0.0
 11
371.136357776872
 21
177.1791646876051
 31
0.0
  0
LINE
  5
D5CE
330
36
100
AcDbEntity
  8
_0-2_寸法
  6
Continuous
 62
     7
100
AcDbLine
 10
368.7611730218047
 20
182.193536935131
 30
0.0
 11
368.7611730218047
 21
183.9936828539295
 31
0.0
  0
LINE
  5
D5CF
330
36
100
AcDbEntity
  8
_0-2_寸法
  6
Continuous
 62
     7
100
AcDbLine
 10
368.7611730218047
 20
183.9936828539295
 30
0.0
 11
376.7613238422673
 21
183.9936828539295
 31
0.0
  0
LINE
  5
D5D0
330
36
100
AcDbEntity
  8
_0-2_寸法
  6
Continuous
 62
     7
100
AcDbLine
 10
373.6361249477814
 20
178.4781813381844
 30
0.0
 11
374.3861390871998
 21
177.1791646876051
 31
0.0
  0
LINE
  5
D5D1
330
36
100
AcDbEntity
  8
_0-2_寸法
  6
Continuous
 62
     7
100
AcDbLine
 10
370.368986087381
 20
182.193536935131
 30
0.0
 11
368.7611730218047
 21
182.193536935131
 31
0.0
  0
LINE
  5
D5D2
330
36
100
AcDbEntity
  8
_0-2_寸法
  6
Continuous
 62
     7
100
AcDbLine
 10
360.6361598250132
 20
137.5093238786046
 30
0.0
 11
361.3861739644321
 21
138.8083405291829
 31
0.0
  0
LINE
  5
D5D3
330
36
100
AcDbEntity
  8
_0-2_寸法
  6
Continuous
 62
     7
100
AcDbLine
 10
363.7613587195001
 20
133.7936883211712
 30
0.0
 11
363.7613587195001
 21
131.9935424023731
 31
0.0
  0
LINE
  5
D5D4
330
36
100
AcDbEntity
  8
_0-2_寸法
  6
Continuous
 62
     7
100
AcDbLine
 10
363.7613587195001
 20
131.9935424023731
 30
0.0
 11
355.7612078990369
 21
131.9935424023731
 31
0.0
  0
LINE
  5
D5D5
330
36
100
AcDbEntity
  8
_0-2_寸法
  6
Continuous
 62
     7
100
AcDbLine
 10
362.1532656934378
 20
133.7936883211712
 30
0.0
 11
363.7613587195001
 21
133.7936883211712
 31
0.0
  0
LINE
  5
D5D6
330
36
100
AcDbEntity
  8
_0-2_寸法
  6
Continuous
 62
     7
100
AcDbLine
 10
358.8861268330373
 20
137.5093238786046
 30
0.0
 11
358.136112693619
 21
138.8083405291829
 31
0.0
  0
LINE
  5
D5D7
330
36
100
AcDbEntity
  8
_0-2_寸法
  6
Continuous
 62
     7
100
AcDbLine
 10
355.7612078990369
 20
143.9982480008286
 30
0.0
 11
355.7612078990369
 21
131.9935424023731
 31
0.0
  0
LINE
  5
D5D8
330
36
100
AcDbEntity
  8
_0-2_寸法
  6
Continuous
 62
     7
100
AcDbLine
 10
357.561353817835
 20
143.4489655291829
 30
0.0
 11
357.561353817835
 21
138.3858801572603
 31
0.0
  0
LINE
  5
D5D9
330
36
100
AcDbEntity
  8
_0-2_寸法
  6
Continuous
 62
     7
100
AcDbLine
 10
374.9611779234692
 20
172.5382597271198
 30
0.0
 11
374.9611779234692
 21
177.6013450990429
 31
0.0
  0
LINE
  5
D5DA
330
36
100
AcDbEntity
  8
_0-2_寸法
  6
Continuous
 62
     7
100
AcDbLine
 10
374.9611779234692
 20
172.5382597271198
 30
0.0
 11
355.7612078990369
 21
143.9982480008286
 31
0.0
  0
LINE
  5
D5DB
330
36
100
AcDbEntity
  8
_0-2_寸法
  6
Continuous
 62
     7
100
AcDbLine
 10
376.7613238422673
 20
171.9889772554741
 30
0.0
 11
357.561353817835
 21
143.4489655291829
 31
0.0
  0
LINE
  5
D5DC
330
36
100
AcDbEntity
  8
_0-2_寸法
  6
Continuous
 62
     7
100
AcDbLine
 10
376.7613238422673
 20
171.9889772554741
 30
0.0
 11
376.7613238422673
 21
183.9936828539295
 31
0.0
  0
LINE
  5
D5DD
330
36
100
AcDbEntity
  8
_0-2_寸法
  6
Continuous
 62
     7
100
AcDbLine
 10
371.8863719162901
 20
138.4779871568373
 30
0.0
 11
371.136357776872
 21
137.1789705062585
 31
0.0
  0
LINE
  5
D5DE
330
36
100
AcDbEntity
  8
_0-2_寸法
  6
Continuous
 62
     7
100
AcDbLine
 10
368.7611730218047
 20
142.1936227142698
 30
0.0
 11
368.7611730218047
 21
143.9937686330684
 31
0.0
  0
LINE
  5
D5DF
330
36
100
AcDbEntity
  8
_0-2_寸法
  6
Continuous
 62
     7
100
AcDbLine
 10
368.7611730218047
 20
143.9937686330684
 30
0.0
 11
376.7613238422673
 21
143.9937686330684
 31
0.0
  0
LINE
  5
D5E0
330
36
100
AcDbEntity
  8
_0-2_寸法
  6
Continuous
 62
     7
100
AcDbLine
 10
373.6361249477814
 20
138.4779871568373
 30
0.0
 11
374.3861390871998
 21
137.1789705062585
 31
0.0
  0
LINE
  5
D5E1
330
36
100
AcDbEntity
  8
_0-2_寸法
  6
Continuous
 62
     7
100
AcDbLine
 10
370.368986087381
 20
142.1936227142698
 30
0.0
 11
368.7611730218047
 21
142.1936227142698
 31
0.0
  0
LINE
  5
D5E2
330
36
100
AcDbEntity
  8
_0-2_寸法
  6
Continuous
 62
     7
100
AcDbLine
 10
360.6361598250132
 20
97.50912969725757
 30
0.0
 11
361.3861739644321
 21
98.80814634783678
 31
0.0
  0
LINE
  5
D5E3
330
36
100
AcDbEntity
  8
_0-2_寸法
  6
Continuous
 62
     7
100
AcDbLine
 10
363.7613587195001
 20
93.79377410030995
 30
0.0
 11
363.7613587195001
 21
91.9936281815119
 31
0.0
  0
LINE
  5
D5E4
330
36
100
AcDbEntity
  8
_0-2_寸法
  6
Continuous
 62
     7
100
AcDbLine
 10
363.7613587195001
 20
91.9936281815119
 30
0.0
 11
355.7612078990369
 21
91.9936281815119
 31
0.0
  0
LINE
  5
D5E5
330
36
100
AcDbEntity
  8
_0-2_寸法
  6
Continuous
 62
     7
100
AcDbLine
 10
362.1532656934378
 20
93.79377410030995
 30
0.0
 11
363.7613587195001
 21
93.79377410030995
 31
0.0
  0
LINE
  5
D5E6
330
36
100
AcDbEntity
  8
_0-2_寸法
  6
Continuous
 62
     7
100
AcDbLine
 10
358.8861268330373
 20
97.50912969725757
 30
0.0
 11
358.136112693619
 21
98.80814634783678
 31
0.0
  0
LINE
  5
D5E7
330
36
100
AcDbEntity
  8
_0-2_寸法
  6
Continuous
 62
     7
100
AcDbLine
 10
355.7612078990369
 20
103.9983337799674
 30
0.0
 11
355.7612078990369
 21
91.9936281815119
 31
0.0
  0
LINE
  5
D5E8
330
36
100
AcDbEntity
  8
_0-2_寸法
  6
Continuous
 62
     7
100
AcDbLine
 10
357.561353817835
 20
103.4490513083217
 30
0.0
 11
357.561353817835
 21
98.38596593639772
 31
0.0
  0
LINE
  5
D5E9
330
36
100
AcDbEntity
  8
_0-2_寸法
  6
Continuous
 62
     7
100
AcDbLine
 10
374.9611779234692
 20
132.5383455062585
 30
0.0
 11
374.9611779234692
 21
137.6014308781816
 31
0.0
  0
LINE
  5
D5EA
330
36
100
AcDbEntity
  8
_0-2_寸法
  6
Continuous
 62
     7
100
AcDbLine
 10
374.9611779234692
 20
132.5383455062585
 30
0.0
 11
355.7612078990369
 21
103.9983337799674
 31
0.0
  0
LINE
  5
D5EB
330
36
100
AcDbEntity
  8
_0-2_寸法
  6
Continuous
 62
     7
100
AcDbLine
 10
376.7613238422673
 20
131.9890630346128
 30
0.0
 11
357.561353817835
 21
103.4490513083217
 31
0.0
  0
LINE
  5
D5EC
330
36
100
AcDbEntity
  8
_0-2_寸法
  6
Continuous
 62
     7
100
AcDbLine
 10
376.7613238422673
 20
131.9890630346128
 30
0.0
 11
376.7613238422673
 21
143.9937686330684
 31
0.0
  0
LINE
  5
D5ED
330
36
100
AcDbEntity
  8
_0-3_仕上
  6
Continuous
 62
     4
100
AcDbLine
 10
355.7612078990369
 20
194.9936102715812
 30
0.0
 11
376.7610438817828
 21
194.9936102715812
 31
0.0
  0
LINE
  5
D5EE
330
36
100
AcDbEntity
  8
_0-2_寸法
  6
Continuous
 62
     7
100
AcDbLine
 10
374.9611779234692
 20
212.5381739479815
 30
0.0
 11
368.540284199109
 21
202.9937610920454
 31
0.0
  0
LINE
  5
D5EF
330
36
100
AcDbEntity
  8
_0-2_寸法
  6
Continuous
 62
     7
100
AcDbLine
 10
376.7613238422673
 20
211.9891714368212
 30
0.0
 11
370.7096979976732
 21
202.9937610920454
 31
0.0
  0
LINE
  5
D5F0
330
36
100
AcDbEntity
  8
_0-2_寸法
  6
Continuous
 62
     7
100
AcDbLine
 10
361.812833743631
 20
192.9935725664661
 30
0.0
 11
355.7612078990369
 21
183.9981622216899
 31
0.0
  0
LINE
  5
D5F1
330
36
100
AcDbEntity
  8
_0-2_寸法
  6
Continuous
 62
     7
100
AcDbLine
 10
363.9822475421952
 20
192.9935725664661
 30
0.0
 11
357.561353817835
 21
183.4491597105295
 31
0.0
  0
LINE
  5
D5F2
330
36
100
AcDbEntity
  8
_0-3_仕上
  6
Continuous
 62
     4
100
AcDbLine
 10
353.7611701939204
 20
194.9936102715812
 30
0.0
 11
353.7611701939204
 21
99.9937790019751
 31
0.0
  0
LINE
  5
D5F3
330
36
100
AcDbEntity
  8
_0-3_仕上
  6
Continuous
 62
     4
100
AcDbLine
 10
355.7612078990369
 20
194.9936102715812
 30
0.0
 11
355.7612078990369
 21
99.9937790019751
 31
0.0
  0
LINE
  5
D5F4
330
36
100
AcDbEntity
  8
_0-3_仕上
  6
Continuous
 62
     4
100
AcDbLine
 10
376.7610438817828
 20
194.9936102715812
 30
0.0
 11
376.7610438817828
 21
99.9937790019751
 31
0.0
  0
LINE
  5
D5F5
330
36
100
AcDbEntity
  8
_0-3_仕上
  6
Continuous
 62
     4
100
AcDbLine
 10
378.7610815868983
 20
194.9936102715812
 30
0.0
 11
378.7610815868983
 21
99.9937790019751
 31
0.0
  0
LINE
  5
D5F6
330
36
100
AcDbEntity
  8
_0-3_仕上
  6
Continuous
 62
     4
100
AcDbLine
 10
378.7610815868983
 20
295.9935546565364
 30
0.0
 11
378.7610815868983
 21
202.9937610920454
 31
0.0
  0
LINE
  5
D5F7
330
36
100
AcDbEntity
  8
_0-3_仕上
  6
Continuous
 62
     4
100
AcDbLine
 10
376.7610438817828
 20
295.9935546565364
 30
0.0
 11
376.7610438817828
 21
202.9937610920454
 31
0.0
  0
LINE
  5
D5F8
330
36
100
AcDbEntity
  8
_0-3_仕上
  6
Continuous
 62
     4
100
AcDbLine
 10
355.7612078990369
 20
295.9935546565364
 30
0.0
 11
355.7612078990369
 21
202.9937610920454
 31
0.0
  0
LINE
  5
D5F9
330
36
100
AcDbEntity
  8
_0-3_仕上
  6
Continuous
 62
     4
100
AcDbLine
 10
353.7611701939204
 20
295.9935546565364
 30
0.0
 11
353.7611701939204
 21
202.9937610920454
 31
0.0
  0
LINE
  5
D5FA
330
36
100
AcDbEntity
  8
_0-3_仕上
  6
Continuous
 62
     4
100
AcDbLine
 10
376.7610438817828
 20
194.9936102715812
 30
0.0
 11
378.7610815868983
 21
194.9936102715812
 31
0.0
  0
LINE
  5
D5FB
330
36
100
AcDbEntity
  8
_0-3_仕上
  6
Continuous
 62
     4
100
AcDbLine
 10
353.7611701939204
 20
194.9936102715812
 30
0.0
 11
355.7612078990369
 21
194.9936102715812
 31
0.0
  0
LINE
  5
D5FC
330
36
100
AcDbEntity
  8
_0-3_仕上
  6
Continuous
 62
     4
100
AcDbLine
 10
378.7610815868983
 20
194.9936102715812
 30
0.0
 11
381.2611287182932
 21
194.9936102715812
 31
0.0
  0
LINE
  5
D5FD
330
36
100
AcDbEntity
  8
_0-3_仕上
  6
Continuous
 62
     4
100
AcDbLine
 10
351.2611230625262
 20
194.9936102715812
 30
0.0
 11
353.7611701939204
 21
194.9936102715812
 31
0.0
  0
LINE
  5
D5FE
330
36
100
AcDbEntity
  8
_0-4_建具
  6
Continuous
 62
     4
100
AcDbLine
 10
331.2610259718522
 20
183.9936828539295
 30
0.0
 11
331.2610259718522
 21
131.9935424023731
 31
0.0
  0
LINE
  5
D5FF
330
36
100
AcDbEntity
  8
_0-4_建具
  6
Continuous
 62
     4
100
AcDbLine
 10
324.2608940039472
 20
69.99349338572324
 30
0.0
 11
324.2608940039472
 21
84.99349621360648
 31
0.0
  0
LINE
  5
D600
330
36
100
AcDbEntity
  8
_0-4_建具
  6
Continuous
 62
     4
100
AcDbLine
 10
340.2609156843887
 20
69.99349338572324
 30
0.0
 11
324.2608940039472
 21
69.99349338572324
 31
0.0
  0
LINE
  5
D601
330
36
100
AcDbEntity
  8
_0-4_建具
  6
Continuous
 62
     4
100
AcDbLine
 10
340.2609156843887
 20
84.99349621360648
 30
0.0
 11
324.2608940039472
 21
84.99349621360648
 31
0.0
  0
LINE
  5
D602
330
36
100
AcDbEntity
  8
_0-4_建具
  6
Continuous
 62
     4
100
AcDbLine
 10
324.2608940039472
 20
84.99349621360648
 30
0.0
 11
324.2608940039472
 21
99.99349904148971
 31
0.0
  0
LINE
  5
D603
330
36
100
AcDbEntity
  8
_0-4_建具
  6
Continuous
 62
     4
100
AcDbLine
 10
340.2609156843887
 20
99.99349904148971
 30
0.0
 11
324.2608940039472
 21
99.99349904148971
 31
0.0
  0
LINE
  5
D604
330
36
100
AcDbEntity
  8
_0-4_建具
  6
Continuous
 62
     4
100
AcDbLine
 10
324.2608940039472
 20
297.9935923616515
 30
0.0
 11
324.2608940039472
 21
312.9935951895348
 31
0.0
  0
LINE
  5
D605
330
36
100
AcDbEntity
  8
_0-4_建具
  6
Continuous
 62
     4
100
AcDbLine
 10
340.2609156843887
 20
297.9935923616515
 30
0.0
 11
324.2608940039472
 21
297.9935923616515
 31
0.0
  0
LINE
  5
D606
330
36
100
AcDbEntity
  8
_0-4_建具
  6
Continuous
 62
     4
100
AcDbLine
 10
340.2609156843887
 20
312.9935951895348
 30
0.0
 11
324.2608940039472
 21
312.9935951895348
 31
0.0
  0
LINE
  5
D607
330
36
100
AcDbEntity
  8
_0-4_建具
  6
Continuous
 62
     4
100
AcDbLine
 10
324.2608940039472
 20
312.9935951895348
 30
0.0
 11
324.2608940039472
 21
327.9935980174188
 31
0.0
  0
LINE
  5
D608
330
36
100
AcDbEntity
  8
_0-4_建具
  6
Continuous
 62
     4
100
AcDbLine
 10
340.2609156843887
 20
327.9935980174188
 30
0.0
 11
324.2608940039472
 21
327.9935980174188
 31
0.0
  0
LINE
  5
D609
330
36
100
AcDbEntity
  8
_0-4_建具
  6
Continuous
 62
     4
100
AcDbLine
 10
346.7610382260155
 20
183.9936828539295
 30
0.0
 11
331.2610259718522
 21
183.9936828539295
 31
0.0
  0
LINE
  5
D60A
330
36
100
AcDbEntity
  8
_0-4_建具
  6
Continuous
 62
     4
100
AcDbLine
 10
346.7610382260155
 20
131.9935424023731
 30
0.0
 11
331.2610259718522
 21
131.9935424023731
 31
0.0
  0
LINE
  5
D60B
330
36
100
AcDbEntity
  8
_0-2_寸法
  6
Continuous
 62
     7
100
AcDbLine
 10
351.2611230625262
 20
69.99349338572324
 30
0.0
 11
351.2611230625262
 21
83.49346793476909
 31
0.0
  0
LINE
  5
D60C
330
36
100
AcDbEntity
  8
_0-2_寸法
  6
Continuous
 62
     7
100
AcDbLine
 10
349.7610947836894
 20
69.99349338572324
 30
0.0
 11
349.7610947836894
 21
84.99349621360648
 31
0.0
  0
LINE
  5
D60D
330
36
100
AcDbEntity
  8
_0-2_寸法
  6
Continuous
 62
     7
100
AcDbLine
 10
349.7610947836894
 20
69.99349338572324
 30
0.0
 11
351.2611230625262
 21
69.99349338572324
 31
0.0
  0
LINE
  5
D60E
330
36
100
AcDbEntity
  8
_0-2_寸法
  6
Continuous
 62
     7
100
AcDbLine
 10
381.2611287182932
 20
83.49346793476909
 30
0.0
 11
381.2611287182932
 21
70.49350281200145
 31
0.0
  0
LINE
  5
D60F
330
36
100
AcDbEntity
  8
_0-2_寸法
  6
Continuous
 62
     7
100
AcDbLine
 10
381.2611287182932
 20
70.49350281200145
 30
0.0
 11
382.7611569971304
 21
70.49350281200145
 31
0.0
  0
LINE
  5
D610
330
36
100
AcDbEntity
  8
_0-2_寸法
  6
Continuous
 62
     7
100
AcDbLine
 10
382.7611569971304
 20
84.99349621360648
 30
0.0
 11
382.7611569971304
 21
70.49350281200145
 31
0.0
  0
LINE
  5
D611
330
36
100
AcDbEntity
  8
_0-2_寸法
  6
Continuous
 62
     7
100
AcDbLine
 10
354.2611796201995
 20
84.99349621360648
 30
0.0
 11
378.2610721606197
 21
84.99349621360648
 31
0.0
  0
LINE
  5
D612
330
36
100
AcDbEntity
  8
_0-2_寸法
  6
Continuous
 62
     7
100
AcDbLine
 10
351.2611230625262
 20
327.9935980174188
 30
0.0
 11
351.2611230625262
 21
314.493623468373
 31
0.0
  0
LINE
  5
D613
330
36
100
AcDbEntity
  8
_0-2_寸法
  6
Continuous
 62
     7
100
AcDbLine
 10
349.7610947836894
 20
327.9935980174188
 30
0.0
 11
349.7610947836894
 21
312.9935951895348
 31
0.0
  0
LINE
  5
D614
330
36
100
AcDbEntity
  8
_0-2_寸法
  6
Continuous
 62
     7
100
AcDbLine
 10
349.7610947836894
 20
327.9935980174188
 30
0.0
 11
351.2611230625262
 21
327.9935980174188
 31
0.0
  0
LINE
  5
D615
330
36
100
AcDbEntity
  8
_0-2_寸法
  6
Continuous
 62
     7
100
AcDbLine
 10
381.2611287182932
 20
314.493623468373
 30
0.0
 11
381.2611287182932
 21
327.9935980174188
 31
0.0
  0
LINE
  5
D616
330
36
100
AcDbEntity
  8
_0-2_寸法
  6
Continuous
 62
     7
100
AcDbLine
 10
381.2611287182932
 20
327.9935980174188
 30
0.0
 11
382.7611569971304
 21
327.9935980174188
 31
0.0
  0
LINE
  5
D617
330
36
100
AcDbEntity
  8
_0-2_寸法
  6
Continuous
 62
     7
100
AcDbLine
 10
382.7611569971304
 20
312.9935951895348
 30
0.0
 11
382.7611569971304
 21
327.9935980174188
 31
0.0
  0
LINE
  5
D618
330
36
100
AcDbEntity
  8
_0-2_寸法
  6
Continuous
 62
     7
100
AcDbLine
 10
354.2611796201995
 20
312.9935951895348
 30
0.0
 11
378.2610721606197
 21
312.9935951895348
 31
0.0
  0
LINE
  5
D619
330
36
100
AcDbEntity
  8
_0-2_寸法
  6
Continuous
 62
     7
100
AcDbLine
 10
351.2611230625262
 20
314.493623468373
 30
0.0
 11
364.7610976115729
 21
314.493623468373
 31
0.0
  0
LINE
  5
D61A
330
36
100
AcDbEntity
  8
_0-2_寸法
  6
Continuous
 62
     7
100
AcDbLine
 10
364.7610976115729
 20
314.493623468373
 30
0.0
 11
364.7610976115729
 21
312.9935951895348
 31
0.0
  0
LINE
  5
D61B
330
36
100
AcDbEntity
  8
_0-2_寸法
  6
Continuous
 62
     7
100
AcDbLine
 10
349.7610947836894
 20
312.9935951895348
 30
0.0
 11
364.7610976115729
 21
312.9935951895348
 31
0.0
  0
LINE
  5
D61C
330
36
100
AcDbEntity
  8
_0-2_寸法
  6
Continuous
 62
     7
100
AcDbLine
 10
367.7611541692467
 20
314.493623468373
 30
0.0
 11
381.2611287182932
 21
314.493623468373
 31
0.0
  0
LINE
  5
D61D
330
36
100
AcDbEntity
  8
_0-2_寸法
  6
Continuous
 62
     7
100
AcDbLine
 10
367.7611541692467
 20
312.9935951895348
 30
0.0
 11
382.7611569971304
 21
312.9935951895348
 31
0.0
  0
LINE
  5
D61E
330
36
100
AcDbEntity
  8
_0-2_寸法
  6
Continuous
 62
     7
100
AcDbLine
 10
367.7611541692467
 20
312.9935951895348
 30
0.0
 11
367.7611541692467
 21
314.493623468373
 31
0.0
  0
LINE
  5
D61F
330
36
100
AcDbEntity
  8
_0-2_寸法
  6
Continuous
 62
     7
100
AcDbLine
 10
367.7611541692467
 20
83.49346793476909
 30
0.0
 11
381.2611287182932
 21
83.49346793476909
 31
0.0
  0
LINE
  5
D620
330
36
100
AcDbEntity
  8
_0-2_寸法
  6
Continuous
 62
     7
100
AcDbLine
 10
367.7611541692467
 20
84.99349621360648
 30
0.0
 11
382.7611569971304
 21
84.99349621360648
 31
0.0
  0
LINE
  5
D621
330
36
100
AcDbEntity
  8
_0-2_寸法
  6
Continuous
 62
     7
100
AcDbLine
 10
367.7611541692467
 20
84.99349621360648
 30
0.0
 11
367.7611541692467
 21
83.49346793476909
 31
0.0
  0
LINE
  5
D622
330
36
100
AcDbEntity
  8
_0-2_寸法
  6
Continuous
 62
     7
100
AcDbLine
 10
351.2611230625262
 20
83.49346793476909
 30
0.0
 11
364.7610976115729
 21
83.49346793476909
 31
0.0
  0
LINE
  5
D623
330
36
100
AcDbEntity
  8
_0-2_寸法
  6
Continuous
 62
     7
100
AcDbLine
 10
364.7610976115729
 20
83.49346793476909
 30
0.0
 11
364.7610976115729
 21
84.99349621360648
 31
0.0
  0
LINE
  5
D624
330
36
100
AcDbEntity
  8
_0-2_寸法
  6
Continuous
 62
     7
100
AcDbLine
 10
349.7610947836894
 20
84.99349621360648
 30
0.0
 11
364.7610976115729
 21
84.99349621360648
 31
0.0
  0
LINE
  5
D625
330
36
100
AcDbEntity
  8
_0-5_その他
  6
Continuous
 62
     4
100
AcDbLine
 10
401.2612258089665
 20
297.9935923616515
 30
0.0
 11
402.814166619475
 21
292.1981303608675
 31
0.0
  0
LINE
  5
D626
330
36
100
AcDbEntity
  8
_0-5_その他
  6
Continuous
 62
     4
100
AcDbLine
 10
401.2612258089665
 20
297.9935923616515
 30
0.0
 11
399.7082849984572
 21
292.1981303608675
 31
0.0
  0
LINE
  5
D627
330
36
100
AcDbEntity
  8
_0-5_その他
  6
Continuous
 62
     4
100
AcDbLine
 10
416.2612286368502
 20
314.9936328946508
 30
0.0
 11
417.8141694473593
 21
309.1981708938672
 31
0.0
  0
LINE
  5
D628
330
36
100
AcDbEntity
  8
_0-5_その他
  6
Continuous
 62
     4
100
AcDbLine
 10
416.2612286368502
 20
314.9936328946508
 30
0.0
 11
414.7082878263407
 21
309.1981708938672
 31
0.0
  0
LINE
  5
D629
330
36
100
AcDbEntity
  8
_0-3_仕上
  6
Continuous
 62
     4
100
AcDbLine
 10
381.2611287182932
 20
297.9935923616515
 30
0.0
 11
401.2612258089665
 21
297.9935923616515
 31
0.0
  0
LINE
  5
D62A
330
36
100
AcDbEntity
  8
_0-0_型材図
  6
Continuous
 62
     7
100
AcDbLine
 10
351.2611230625262
 20
314.493623468373
 30
0.0
 11
351.2611230625262
 21
356.4935753943498
 31
0.0
  0
LINE
  5
D62B
330
36
100
AcDbEntity
  8
_0-0_型材図
  6
Continuous
 62
     7
100
AcDbLine
 10
353.2611607676417
 20
314.493623468373
 30
0.0
 11
353.2611607676417
 21
356.4935753943498
 31
0.0
  0
LINE
  5
D62C
330
36
100
AcDbEntity
  8
_0-0_型材図
  6
Continuous
 62
     7
100
AcDbLine
 10
381.2611287182932
 20
314.493623468373
 30
0.0
 11
381.2611287182932
 21
356.4935753943498
 31
0.0
  0
LINE
  5
D62D
330
36
100
AcDbEntity
  8
_0-0_型材図
  6
Continuous
 62
     7
100
AcDbLine
 10
379.2610910131775
 20
314.493623468373
 30
0.0
 11
379.2610910131775
 21
356.4935753943498
 31
0.0
  0
LINE
  5
D62E
330
36
100
AcDbEntity
  8
_0-0_型材図
  6
Continuous
 62
     7
100
AcDbLine
 10
353.2611607676417
 20
346.4936668292555
 30
0.0
 11
379.2610910131775
 21
346.4936668292555
 31
0.0
  0
LINE
  5
D62F
330
36
100
AcDbEntity
  8
_0-0_型材図
  6
Continuous
 62
     7
100
AcDbLine
 10
351.2611230625262
 20
83.49346793476909
 30
0.0
 11
351.2611230625262
 21
41.49351600879277
 31
0.0
  0
LINE
  5
D630
330
36
100
AcDbEntity
  8
_0-0_型材図
  6
Continuous
 62
     7
100
AcDbLine
 10
353.2611607676417
 20
83.49346793476909
 30
0.0
 11
353.2611607676417
 21
41.49351600879277
 31
0.0
  0
LINE
  5
D631
330
36
100
AcDbEntity
  8
_0-0_型材図
  6
Continuous
 62
     7
100
AcDbLine
 10
381.2611287182932
 20
83.49346793476909
 30
0.0
 11
381.2611287182932
 21
41.49351600879277
 31
0.0
  0
LINE
  5
D632
330
36
100
AcDbEntity
  8
_0-0_型材図
  6
Continuous
 62
     7
100
AcDbLine
 10
379.2610910131775
 20
83.49346793476909
 30
0.0
 11
379.2610910131775
 21
41.49351600879277
 31
0.0
  0
LINE
  5
D633
330
36
100
AcDbEntity
  8
_0-0_型材図
  6
Continuous
 62
     7
100
AcDbLine
 10
353.2611607676417
 20
51.49370453437153
 30
0.0
 11
379.2610910131775
 21
51.49370453437153
 31
0.0
  0
LINE
  5
D634
330
36
100
AcDbEntity
  8
_0-5_その他
  6
Continuous
 62
     4
100
AcDbLine
 10
401.2612258089665
 20
208.8205786671531
 30
0.0
 11
401.2612258089665
 21
297.9935923616515
 31
0.0
  0
LINE
  5
D635
330
36
100
AcDbEntity
  8
_0-0_型材図
  6
Continuous
 62
     7
100
AcDbLine
 10
379.2610910131775
 20
83.49346793476909
 30
0.0
 11
353.2611607676417
 21
51.49370453437153
 31
0.0
  0
LINE
  5
D636
330
36
100
AcDbEntity
  8
_0-0_型材図
  6
Continuous
 62
     7
100
AcDbLine
 10
353.2611607676417
 20
83.49346793476909
 30
0.0
 11
379.2610910131775
 21
51.49370453437153
 31
0.0
  0
LINE
  5
D637
330
36
100
AcDbEntity
  8
_0-0_型材図
  6
Continuous
 62
     7
100
AcDbLine
 10
379.2610910131775
 20
346.4936668292555
 30
0.0
 11
353.2611607676417
 21
314.493623468373
 31
0.0
  0
LINE
  5
D638
330
36
100
AcDbEntity
  8
_0-0_型材図
  6
Continuous
 62
     7
100
AcDbLine
 10
353.2611607676417
 20
346.4936668292555
 30
0.0
 11
379.2610910131775
 21
314.493623468373
 31
0.0
  0
LINE
  5
D639
330
36
100
AcDbEntity
  8
_0-2_寸法
  6
Continuous
 62
     4
100
AcDbLine
 10
351.2611230625262
 20
41.49351600879277
 30
0.0
 11
381.2611287182932
 21
41.49351600879277
 31
0.0
  0
LINE
  5
D63A
330
36
100
AcDbEntity
  8
_0-0_型材図
  6
Continuous
 62
     7
100
AcDbLine
 10
221.2611918743623
 20
324.4938119939509
 30
0.0
 11
219.7611635955254
 21
324.4938119939509
 31
0.0
  0
LINE
  5
D63B
330
36
100
AcDbEntity
  8
_0-0_型材図
  6
Continuous
 62
     7
100
AcDbLine
 10
219.7611635955254
 20
310.493828018625
 30
0.0
 11
221.2611918743623
 21
310.493828018625
 31
0.0
  0
LINE
  5
D63C
330
36
100
AcDbEntity
  8
_0-0_型材図
  6
Continuous
 62
     7
100
AcDbLine
 10
235.2611758496878
 20
316.4936611734886
 30
0.0
 11
235.2611758496878
 21
314.493623468373
 31
0.0
  0
LINE
  5
D63D
330
36
100
AcDbEntity
  8
_0-0_型材図
  6
Continuous
 62
     7
100
AcDbLine
 10
235.2611758496878
 20
314.493623468373
 30
0.0
 11
221.2611918743623
 21
314.493623468373
 31
0.0
  0
LINE
  5
D63E
330
36
100
AcDbEntity
  8
_0-0_型材図
  6
Continuous
 62
     7
100
AcDbLine
 10
235.2611758496878
 20
316.4936611734886
 30
0.0
 11
221.2611918743623
 21
316.4936611734886
 31
0.0
  0
LINE
  5
D63F
330
36
100
AcDbEntity
  8
_0-0_型材図
  6
Continuous
 62
     7
100
AcDbLine
 10
219.7611635955254
 20
324.4938119939509
 30
0.0
 11
219.7611635955254
 21
310.493828018625
 31
0.0
  0
LINE
  5
D640
330
36
100
AcDbEntity
  8
_0-0_型材図
  6
Continuous
 62
     7
100
AcDbLine
 10
221.2611918743623
 20
324.4938119939509
 30
0.0
 11
221.2611918743623
 21
316.4936611734886
 31
0.0
  0
LINE
  5
D641
330
36
100
AcDbEntity
  8
_0-0_型材図
  6
Continuous
 62
     7
100
AcDbLine
 10
221.2611918743623
 20
314.493623468373
 30
0.0
 11
221.2611918743623
 21
310.493828018625
 31
0.0
  0
LINE
  5
D642
330
36
100
AcDbEntity
  8
_0-0_型材図
  6
Continuous
 62
     7
100
AcDbLine
 10
231.2611004394566
 20
314.493623468373
 30
0.0
 11
231.2611004394566
 21
299.4936206404883
 31
0.0
  0
LINE
  5
D643
330
36
100
AcDbEntity
  8
_0-0_型材図
  6
Continuous
 62
     7
100
AcDbLine
 10
231.2611004394566
 20
299.4936206404883
 30
0.0
 11
221.2611918743623
 21
299.4936206404883
 31
0.0
  0
LINE
  5
D644
330
36
100
AcDbEntity
  8
_0-0_型材図
  6
Continuous
 62
     7
100
AcDbLine
 10
221.2611918743623
 20
299.4936206404883
 30
0.0
 11
221.2611918743623
 21
314.493623468373
 31
0.0
  0
LINE
  5
D645
330
36
100
AcDbEntity
  8
_0-0_型材図
  6
Continuous
 62
     7
100
AcDbLine
 10
221.2611918743623
 20
314.493623468373
 30
0.0
 11
231.2611004394566
 21
314.493623468373
 31
0.0
  0
LINE
  5
D646
330
36
100
AcDbEntity
  8
_0-0_型材図
  6
Continuous
 62
     7
100
AcDbLine
 10
229.7610721606197
 20
312.9935951895348
 30
0.0
 11
229.7610721606197
 21
300.9936489193249
 31
0.0
  0
LINE
  5
D647
330
36
100
AcDbEntity
  8
_0-0_型材図
  6
Continuous
 62
     7
100
AcDbLine
 10
229.7610721606197
 20
300.9936489193249
 30
0.0
 11
222.7612201531993
 21
300.9936489193249
 31
0.0
  0
LINE
  5
D648
330
36
100
AcDbEntity
  8
_0-0_型材図
  6
Continuous
 62
     7
100
AcDbLine
 10
222.7612201531993
 20
300.9936489193249
 30
0.0
 11
222.7612201531993
 21
312.9935951895348
 31
0.0
  0
LINE
  5
D649
330
36
100
AcDbEntity
  8
_0-0_型材図
  6
Continuous
 62
     7
100
AcDbLine
 10
222.7612201531993
 20
312.9935951895348
 30
0.0
 11
229.7610721606197
 21
312.9935951895348
 31
0.0
  0
LINE
  5
D64A
330
36
100
AcDbEntity
  8
_0-0_型材図
  6
Continuous
 62
     7
100
AcDbLine
 10
221.2611918743623
 20
316.4936611734886
 30
0.0
 11
221.2611918743623
 21
356.4935753943498
 31
0.0
  0
LINE
  5
D64B
330
36
100
AcDbEntity
  8
_0-1_部品
  6
Continuous
 62
     4
100
AcDbLine
 10
199.7610665048519
 20
324.4938119939509
 30
0.0
 11
199.7610665048519
 21
310.493828018625
 31
0.0
  0
LINE
  5
D64C
330
36
100
AcDbEntity
  8
_0-1_部品
  6
Continuous
 62
     4
100
AcDbLine
 10
215.7610881852938
 20
324.4938119939509
 30
0.0
 11
199.7610665048519
 21
324.4938119939509
 31
0.0
  0
LINE
  5
D64D
330
36
100
AcDbEntity
  8
_0-1_部品
  6
Continuous
 62
     4
100
AcDbLine
 10
215.7610881852938
 20
310.493828018625
 30
0.0
 11
199.7610665048519
 21
310.493828018625
 31
0.0
  0
LINE
  5
D64E
330
36
100
AcDbEntity
  8
_0-1_部品
  6
Continuous
 62
     4
100
AcDbLine
 10
199.7610665048519
 20
310.493828018625
 30
0.0
 11
199.7610665048519
 21
299.4936206404883
 31
0.0
  0
LINE
  5
D64F
330
36
100
AcDbEntity
  8
_0-1_部品
  6
Continuous
 62
     4
100
AcDbLine
 10
215.7610881852938
 20
299.4936206404883
 30
0.0
 11
199.7610665048519
 21
299.4936206404883
 31
0.0
  0
LINE
  5
D650
330
36
100
AcDbEntity
  8
_0-0_型材図
  6
Continuous
 62
     7
100
AcDbLine
 10
223.2612295794779
 20
316.4936611734886
 30
0.0
 11
223.2612295794779
 21
356.4935753943498
 31
0.0
  0
LINE
  5
D651
330
36
100
AcDbEntity
  8
_0-0_型材図
  6
Continuous
 62
     7
100
AcDbLine
 10
262.7611343740609
 20
324.4938119939509
 30
0.0
 11
261.261106095224
 21
324.4938119939509
 31
0.0
  0
LINE
  5
D652
330
36
100
AcDbEntity
  8
_0-0_型材図
  6
Continuous
 62
     7
100
AcDbLine
 10
261.261106095224
 20
310.493828018625
 30
0.0
 11
262.7611343740609
 21
310.493828018625
 31
0.0
  0
LINE
  5
D653
330
36
100
AcDbEntity
  8
_0-0_型材図
  6
Continuous
 62
     7
100
AcDbLine
 10
247.2611221198977
 20
314.493623468373
 30
0.0
 11
247.2611221198977
 21
316.4936611734886
 31
0.0
  0
LINE
  5
D654
330
36
100
AcDbEntity
  8
_0-0_型材図
  6
Continuous
 62
     7
100
AcDbLine
 10
247.2611221198977
 20
314.493623468373
 30
0.0
 11
261.261106095224
 21
314.493623468373
 31
0.0
  0
LINE
  5
D655
330
36
100
AcDbEntity
  8
_0-0_型材図
  6
Continuous
 62
     7
100
AcDbLine
 10
247.2611221198977
 20
316.4936611734886
 30
0.0
 11
261.261106095224
 21
316.4936611734886
 31
0.0
  0
LINE
  5
D656
330
36
100
AcDbEntity
  8
_0-0_型材図
  6
Continuous
 62
     7
100
AcDbLine
 10
262.7611343740609
 20
310.493828018625
 30
0.0
 11
262.7611343740609
 21
324.4938119939509
 31
0.0
  0
LINE
  5
D657
330
36
100
AcDbEntity
  8
_0-0_型材図
  6
Continuous
 62
     7
100
AcDbLine
 10
261.261106095224
 20
310.493828018625
 30
0.0
 11
261.261106095224
 21
314.493623468373
 31
0.0
  0
LINE
  5
D658
330
36
100
AcDbEntity
  8
_0-0_型材図
  6
Continuous
 62
     7
100
AcDbLine
 10
261.261106095224
 20
316.4936611734886
 30
0.0
 11
261.261106095224
 21
324.4938119939509
 31
0.0
  0
LINE
  5
D659
330
36
100
AcDbEntity
  8
_0-0_型材図
  6
Continuous
 62
     7
100
AcDbLine
 10
261.261106095224
 20
314.493623468373
 30
0.0
 11
261.261106095224
 21
299.4936206404883
 31
0.0
  0
LINE
  5
D65A
330
36
100
AcDbEntity
  8
_0-0_型材図
  6
Continuous
 62
     7
100
AcDbLine
 10
261.261106095224
 20
299.4936206404883
 30
0.0
 11
251.2611975301297
 21
299.4936206404883
 31
0.0
  0
LINE
  5
D65B
330
36
100
AcDbEntity
  8
_0-0_型材図
  6
Continuous
 62
     7
100
AcDbLine
 10
251.2611975301297
 20
299.4936206404883
 30
0.0
 11
251.2611975301297
 21
314.493623468373
 31
0.0
  0
LINE
  5
D65C
330
36
100
AcDbEntity
  8
_0-0_型材図
  6
Continuous
 62
     7
100
AcDbLine
 10
251.2611975301297
 20
314.493623468373
 30
0.0
 11
261.261106095224
 21
314.493623468373
 31
0.0
  0
LINE
  5
D65D
330
36
100
AcDbEntity
  8
_0-0_型材図
  6
Continuous
 62
     7
100
AcDbLine
 10
259.7610778163867
 20
312.9935951895348
 30
0.0
 11
259.7610778163867
 21
300.9936489193249
 31
0.0
  0
LINE
  5
D65E
330
36
100
AcDbEntity
  8
_0-0_型材図
  6
Continuous
 62
     7
100
AcDbLine
 10
259.7610778163867
 20
300.9936489193249
 30
0.0
 11
252.7612258089666
 21
300.9936489193249
 31
0.0
  0
LINE
  5
D65F
330
36
100
AcDbEntity
  8
_0-0_型材図
  6
Continuous
 62
     7
100
AcDbLine
 10
252.7612258089666
 20
300.9936489193249
 30
0.0
 11
252.7612258089666
 21
312.9935951895348
 31
0.0
  0
LINE
  5
D660
330
36
100
AcDbEntity
  8
_0-0_型材図
  6
Continuous
 62
     7
100
AcDbLine
 10
252.7612258089666
 20
312.9935951895348
 30
0.0
 11
259.7610778163867
 21
312.9935951895348
 31
0.0
  0
LINE
  5
D661
330
36
100
AcDbEntity
  8
_0-0_型材図
  6
Continuous
 62
     7
100
AcDbLine
 10
261.261106095224
 20
316.4936611734886
 30
0.0
 11
261.261106095224
 21
356.4935753943498
 31
0.0
  0
LINE
  5
D662
330
36
100
AcDbEntity
  8
_0-0_型材図
  6
Continuous
 62
     7
100
AcDbLine
 10
221.2611918743623
 20
316.4936611734886
 30
0.0
 11
261.261106095224
 21
316.4936611734886
 31
0.0
  0
LINE
  5
D663
330
36
100
AcDbEntity
  8
_0-0_型材図
  6
Continuous
 62
     7
100
AcDbLine
 10
259.261068390108
 20
316.4936611734886
 30
0.0
 11
259.261068390108
 21
356.4935753943498
 31
0.0
  0
LINE
  5
D664
330
36
100
AcDbEntity
  8
_0-0_型材図
  6
Continuous
 62
     7
100
AcDbLine
 10
223.2612295794779
 20
346.4936668292555
 30
0.0
 11
259.261068390108
 21
346.4936668292555
 31
0.0
  0
LINE
  5
D665
330
36
100
AcDbEntity
  8
_0-0_型材図
  6
Continuous
 62
     7
100
AcDbLine
 10
259.261068390108
 20
346.4936668292555
 30
0.0
 11
223.2612295794779
 21
316.4936611734886
 31
0.0
  0
LINE
  5
D666
330
36
100
AcDbEntity
  8
_0-0_型材図
  6
Continuous
 62
     7
100
AcDbLine
 10
223.2612295794779
 20
346.4936668292555
 30
0.0
 11
259.261068390108
 21
316.4936611734886
 31
0.0
  0
LINE
  5
D667
330
36
100
AcDbEntity
  8
_0-2_寸法
  6
Continuous
 62
     4
100
AcDbLine
 10
221.2611918743623
 20
299.4936206404883
 30
0.0
 11
221.2611918743623
 21
249.493517894048
 31
0.0
  0
LINE
  5
D668
330
36
100
AcDbEntity
  8
_0-2_寸法
  6
Continuous
 62
     4
100
AcDbLine
 10
231.2611004394566
 20
299.4936206404883
 30
0.0
 11
231.2611004394566
 21
249.493517894048
 31
0.0
  0
LINE
  5
D669
330
36
100
AcDbEntity
  8
_0-2_寸法
  6
Continuous
 62
     4
100
AcDbLine
 10
251.2611975301297
 20
299.4936206404883
 30
0.0
 11
251.2611975301297
 21
249.493517894048
 31
0.0
  0
LINE
  5
D66A
330
36
100
AcDbEntity
  8
_0-2_寸法
  6
Continuous
 62
     4
100
AcDbLine
 10
261.261106095224
 20
299.4936206404883
 30
0.0
 11
261.261106095224
 21
249.493517894048
 31
0.0
  0
LINE
  5
D66B
330
36
100
AcDbEntity
  8
_0-2_寸法
  6
Continuous
 62
     4
100
AcDbLine
 10
221.2611918743623
 20
249.493517894048
 30
0.0
 11
231.2611004394566
 21
249.493517894048
 31
0.0
  0
LINE
  5
D66C
330
36
100
AcDbEntity
  8
_0-2_寸法
  6
Continuous
 62
     4
100
AcDbLine
 10
231.2611004394566
 20
249.493517894048
 30
0.0
 11
251.2611975301297
 21
249.493517894048
 31
0.0
  0
LINE
  5
D66D
330
36
100
AcDbEntity
  8
_0-2_寸法
  6
Continuous
 62
     4
100
AcDbLine
 10
251.2611975301297
 20
249.493517894048
 30
0.0
 11
261.261106095224
 21
249.493517894048
 31
0.0
  0
LINE
  5
D66E
330
36
100
AcDbEntity
  8
_0-2_寸法
  6
Continuous
 62
     4
100
AcDbLine
 10
221.2611918743623
 20
356.4935753943498
 30
0.0
 11
261.261106095224
 21
356.4935753943498
 31
0.0
  0
LINE
  5
D66F
330
36
100
AcDbEntity
  8
_0-0_型材図
  6
Continuous
 62
     7
100
AcDbLine
 10
262.7611343740609
 20
151.9936394930462
 30
0.0
 11
261.261106095224
 21
151.9936394930462
 31
0.0
  0
LINE
  5
D670
330
36
100
AcDbEntity
  8
_0-0_型材図
  6
Continuous
 62
     7
100
AcDbLine
 10
221.2614718348477
 20
151.9936394930462
 30
0.0
 11
219.7614435560104
 21
151.9936394930462
 31
0.0
  0
LINE
  5
D671
330
36
100
AcDbEntity
  8
_0-0_型材図
  6
Continuous
 62
     7
100
AcDbLine
 10
219.7614435560104
 20
137.9936555177207
 30
0.0
 11
221.2614718348477
 21
137.9936555177207
 31
0.0
  0
LINE
  5
D672
330
36
100
AcDbEntity
  8
_0-0_型材図
  6
Continuous
 62
     7
100
AcDbLine
 10
261.261106095224
 20
137.9936555177207
 30
0.0
 11
262.7611343740609
 21
137.9936555177207
 31
0.0
  0
LINE
  5
D673
330
36
100
AcDbEntity
  8
_0-0_型材図
  6
Continuous
 62
     7
100
AcDbLine
 10
247.2614020803831
 20
141.9934509674674
 30
0.0
 11
247.2614020803831
 21
143.993488672583
 31
0.0
  0
LINE
  5
D674
330
36
100
AcDbEntity
  8
_0-0_型材図
  6
Continuous
 62
     7
100
AcDbLine
 10
235.2614558101732
 20
143.993488672583
 30
0.0
 11
235.2614558101732
 21
141.9934509674674
 31
0.0
  0
LINE
  5
D675
330
36
100
AcDbEntity
  8
_0-0_型材図
  6
Continuous
 62
     7
100
AcDbLine
 10
247.2614020803831
 20
141.9934509674674
 30
0.0
 11
261.261106095224
 21
141.9934509674674
 31
0.0
  0
LINE
  5
D676
330
36
100
AcDbEntity
  8
_0-0_型材図
  6
Continuous
 62
     7
100
AcDbLine
 10
247.2614020803831
 20
143.993488672583
 30
0.0
 11
261.261106095224
 21
143.993488672583
 31
0.0
  0
LINE
  5
D677
330
36
100
AcDbEntity
  8
_0-0_型材図
  6
Continuous
 62
     7
100
AcDbLine
 10
262.7611343740609
 20
137.9936555177207
 30
0.0
 11
262.7611343740609
 21
151.9936394930462
 31
0.0
  0
LINE
  5
D678
330
36
100
AcDbEntity
  8
_0-0_型材図
  6
Continuous
 62
     7
100
AcDbLine
 10
261.261106095224
 20
143.993488672583
 30
0.0
 11
261.261106095224
 21
151.9936394930462
 31
0.0
  0
LINE
  5
D679
330
36
100
AcDbEntity
  8
_0-0_型材図
  6
Continuous
 62
     7
100
AcDbLine
 10
235.2614558101732
 20
141.9934509674674
 30
0.0
 11
221.2614718348477
 21
141.9934509674674
 31
0.0
  0
LINE
  5
D67A
330
36
100
AcDbEntity
  8
_0-0_型材図
  6
Continuous
 62
     7
100
AcDbLine
 10
219.7614435560104
 20
151.9936394930462
 30
0.0
 11
219.7614435560104
 21
137.9936555177207
 31
0.0
  0
LINE
  5
D67B
330
36
100
AcDbEntity
  8
_0-0_型材図
  6
Continuous
 62
     7
100
AcDbLine
 10
221.2614718348477
 20
151.9936394930462
 30
0.0
 11
221.2614718348477
 21
143.993488672583
 31
0.0
  0
LINE
  5
D67C
330
36
100
AcDbEntity
  8
_0-0_型材図
  6
Continuous
 62
     7
100
AcDbLine
 10
235.2614558101732
 20
143.993488672583
 30
0.0
 11
221.2614718348477
 21
143.993488672583
 31
0.0
  0
LINE
  5
D67D
330
36
100
AcDbEntity
  8
_0-0_型材図
  6
Continuous
 62
     7
100
AcDbLine
 10
221.2614718348477
 20
141.9934509674674
 30
0.0
 11
221.2614718348477
 21
137.9936555177207
 31
0.0
  0
LINE
  5
D67E
330
36
100
AcDbEntity
  8
_0-0_型材図
  6
Continuous
 62
     7
100
AcDbLine
 10
261.261106095224
 20
141.9934509674674
 30
0.0
 11
261.261106095224
 21
137.9936555177207
 31
0.0
  0
LINE
  5
D67F
330
36
100
AcDbEntity
  8
_0-3_仕上
  6
Continuous
 62
     7
100
AcDbLine
 10
221.2614718348477
 20
143.993488672583
 30
0.0
 11
261.261106095224
 21
143.993488672583
 31
0.0
  0
LINE
  5
D680
330
36
100
AcDbEntity
  8
_0-4_建具
  6
Continuous
 62
     4
100
AcDbLine
 10
199.7613464653373
 20
151.9936394930462
 30
0.0
 11
199.7613464653373
 21
137.9936555177207
 31
0.0
  0
LINE
  5
D681
330
36
100
AcDbEntity
  8
_0-4_建具
  6
Continuous
 62
     4
100
AcDbLine
 10
215.7613681457787
 20
151.9936394930462
 30
0.0
 11
199.7613464653373
 21
151.9936394930462
 31
0.0
  0
LINE
  5
D682
330
36
100
AcDbEntity
  8
_0-4_建具
  6
Continuous
 62
     4
100
AcDbLine
 10
215.7613681457787
 20
137.9936555177207
 30
0.0
 11
199.7613464653373
 21
137.9936555177207
 31
0.0
  0
LINE
  5
D683
330
36
100
AcDbEntity
  8
_0-1_部品
  6
Continuous
 62
     7
100
AcDbLine
 10
221.2614718348477
 20
138.9936743702781
 30
0.0
 11
261.261386055709
 21
138.9936743702781
 31
0.0
  0
LINE
  5
D684
330
36
100
AcDbEntity
  8
_0-1_部品
  6
Continuous
 62
     7
100
AcDbLine
 10
261.261386055709
 20
138.9936743702781
 30
0.0
 11
261.261386055709
 21
141.9934509674674
 31
0.0
  0
LINE
  5
D685
330
36
100
AcDbEntity
  8
_0-1_部品
  6
Continuous
 62
     7
100
AcDbLine
 10
261.261386055709
 20
141.9934509674674
 30
0.0
 11
221.2614718348477
 21
141.9934509674674
 31
0.0
  0
LINE
  5
D686
330
36
100
AcDbEntity
  8
_0-1_部品
  6
Continuous
 62
     7
100
AcDbLine
 10
221.2614718348477
 20
141.9934509674674
 30
0.0
 11
221.2614718348477
 21
138.9936743702781
 31
0.0
  0
LINE
  5
D687
330
36
100
AcDbEntity
  8
_0-2_寸法
  6
Continuous
 62
     7
100
AcDbLine
 10
231.2613803999411
 20
138.9936743702781
 30
0.0
 11
231.2613803999411
 21
123.9936715423948
 31
0.0
  0
LINE
  5
D688
330
36
100
AcDbEntity
  8
_0-2_寸法
  6
Continuous
 62
     7
100
AcDbLine
 10
231.2613803999411
 20
123.9936715423948
 30
0.0
 11
221.2614718348477
 21
123.9936715423948
 31
0.0
  0
LINE
  5
D689
330
36
100
AcDbEntity
  8
_0-2_寸法
  6
Continuous
 62
     7
100
AcDbLine
 10
221.2614718348477
 20
123.9936715423948
 30
0.0
 11
221.2614718348477
 21
138.9936743702781
 31
0.0
  0
LINE
  5
D68A
330
36
100
AcDbEntity
  8
_0-2_寸法
  6
Continuous
 62
     7
100
AcDbLine
 10
221.2614718348477
 20
138.9936743702781
 30
0.0
 11
231.2613803999411
 21
138.9936743702781
 31
0.0
  0
LINE
  5
D68B
330
36
100
AcDbEntity
  8
_0-2_寸法
  6
Continuous
 62
     7
100
AcDbLine
 10
229.2613426948256
 20
136.9936366651629
 30
0.0
 11
229.2613426948256
 21
125.9934292870259
 31
0.0
  0
LINE
  5
D68C
330
36
100
AcDbEntity
  8
_0-2_寸法
  6
Continuous
 62
     7
100
AcDbLine
 10
229.2613426948256
 20
125.9934292870259
 30
0.0
 11
223.2612295794779
 21
125.9934292870259
 31
0.0
  0
LINE
  5
D68D
330
36
100
AcDbEntity
  8
_0-2_寸法
  6
Continuous
 62
     7
100
AcDbLine
 10
223.2612295794779
 20
125.9934292870259
 30
0.0
 11
223.2612295794779
 21
136.9936366651629
 31
0.0
  0
LINE
  5
D68E
330
36
100
AcDbEntity
  8
_0-2_寸法
  6
Continuous
 62
     7
100
AcDbLine
 10
223.2612295794779
 20
136.9936366651629
 30
0.0
 11
229.2613426948256
 21
136.9936366651629
 31
0.0
  0
LINE
  5
D68F
330
36
100
AcDbEntity
  8
_0-2_寸法
  6
Continuous
 62
     7
100
AcDbLine
 10
261.261386055709
 20
138.9936743702781
 30
0.0
 11
261.261386055709
 21
123.9936715423948
 31
0.0
  0
LINE
  5
D690
330
36
100
AcDbEntity
  8
_0-2_寸法
  6
Continuous
 62
     7
100
AcDbLine
 10
261.261386055709
 20
123.9936715423948
 30
0.0
 11
251.2614774906146
 21
123.9936715423948
 31
0.0
  0
LINE
  5
D691
330
36
100
AcDbEntity
  8
_0-2_寸法
  6
Continuous
 62
     7
100
AcDbLine
 10
251.2614774906146
 20
123.9936715423948
 30
0.0
 11
251.2614774906146
 21
138.9936743702781
 31
0.0
  0
LINE
  5
D692
330
36
100
AcDbEntity
  8
_0-2_寸法
  6
Continuous
 62
     7
100
AcDbLine
 10
251.2614774906146
 20
138.9936743702781
 30
0.0
 11
261.261386055709
 21
138.9936743702781
 31
0.0
  0
LINE
  5
D693
330
36
100
AcDbEntity
  8
_0-2_寸法
  6
Continuous
 62
     7
100
AcDbLine
 10
259.2613483505929
 20
136.9936366651629
 30
0.0
 11
259.2613483505929
 21
125.9934292870259
 31
0.0
  0
LINE
  5
D694
330
36
100
AcDbEntity
  8
_0-2_寸法
  6
Continuous
 62
     7
100
AcDbLine
 10
259.2613483505929
 20
125.9934292870259
 30
0.0
 11
253.2612352352458
 21
125.9934292870259
 31
0.0
  0
LINE
  5
D695
330
36
100
AcDbEntity
  8
_0-2_寸法
  6
Continuous
 62
     7
100
AcDbLine
 10
253.2612352352458
 20
125.9934292870259
 30
0.0
 11
253.2612352352458
 21
136.9936366651629
 31
0.0
  0
LINE
  5
D696
330
36
100
AcDbEntity
  8
_0-2_寸法
  6
Continuous
 62
     7
100
AcDbLine
 10
253.2612352352458
 20
136.9936366651629
 30
0.0
 11
259.2613483505929
 21
136.9936366651629
 31
0.0
  0
LINE
  5
D697
330
36
100
AcDbEntity
  8
_0-3_仕上
  6
Continuous
 62
     7
100
AcDbLine
 10
246.3865255646374
 20
128.4780785917439
 30
0.0
 11
245.6365114252185
 21
127.1790619411647
 31
0.0
  0
LINE
  5
D698
330
36
100
AcDbEntity
  8
_0-3_仕上
  6
Continuous
 62
     7
100
AcDbLine
 10
243.2616066306364
 20
132.1934341886906
 30
0.0
 11
243.2616066306364
 21
133.9935801074891
 31
0.0
  0
LINE
  5
D699
330
36
100
AcDbEntity
  8
_0-3_仕上
  6
Continuous
 62
     7
100
AcDbLine
 10
243.2616066306364
 20
133.9935801074891
 30
0.0
 11
251.2614774906146
 21
133.9935801074891
 31
0.0
  0
LINE
  5
D69A
330
36
100
AcDbEntity
  8
_0-3_仕上
  6
Continuous
 62
     7
100
AcDbLine
 10
248.1365585566136
 20
128.4780785917439
 30
0.0
 11
248.8865726960321
 21
127.1790619411647
 31
0.0
  0
LINE
  5
D69B
330
36
100
AcDbEntity
  8
_0-3_仕上
  6
Continuous
 62
     7
100
AcDbLine
 10
244.8691397357279
 20
132.1934341886906
 30
0.0
 11
243.2616066306364
 21
132.1934341886906
 31
0.0
  0
LINE
  5
D69C
330
36
100
AcDbEntity
  8
_0-3_仕上
  6
Continuous
 62
     7
100
AcDbLine
 10
236.1363323259188
 20
87.50922113216324
 30
0.0
 11
236.8863464653373
 21
88.80823778274248
 31
0.0
  0
LINE
  5
D69D
330
36
100
AcDbEntity
  8
_0-3_仕上
  6
Continuous
 62
     7
100
AcDbLine
 10
239.2615312204048
 20
83.79358557473031
 30
0.0
 11
239.2615312204048
 21
81.99343965593312
 31
0.0
  0
LINE
  5
D69E
330
36
100
AcDbEntity
  8
_0-3_仕上
  6
Continuous
 62
     7
100
AcDbLine
 10
239.2615312204048
 20
81.99343965593312
 30
0.0
 11
231.2613803999411
 21
81.99343965593312
 31
0.0
  0
LINE
  5
D69F
330
36
100
AcDbEntity
  8
_0-3_仕上
  6
Continuous
 62
     7
100
AcDbLine
 10
237.6537181548283
 20
83.79358557473031
 30
0.0
 11
239.2615312204048
 21
83.79358557473031
 31
0.0
  0
LINE
  5
D6A0
330
36
100
AcDbEntity
  8
_0-3_仕上
  6
Continuous
 62
     7
100
AcDbLine
 10
234.3865792944275
 20
87.50922113216324
 30
0.0
 11
233.6365651550091
 21
88.80823778274248
 31
0.0
  0
LINE
  5
D6A1
330
36
100
AcDbEntity
  8
_0-3_仕上
  6
Continuous
 62
     7
100
AcDbLine
 10
231.2613803999411
 20
93.99814525438818
 30
0.0
 11
231.2613803999411
 21
81.99343965593312
 31
0.0
  0
LINE
  5
D6A2
330
36
100
AcDbEntity
  8
_0-3_仕上
  6
Continuous
 62
     7
100
AcDbLine
 10
233.0615263187397
 20
93.47265942397076
 30
0.0
 11
233.0615263187397
 21
88.38577741081984
 31
0.0
  0
LINE
  5
D6A3
330
36
100
AcDbEntity
  8
_0-3_仕上
  6
Continuous
 62
     7
100
AcDbLine
 10
233.0615263187397
 20
93.47265942397076
 30
0.0
 11
251.2614774906146
 21
121.9888745090331
 31
0.0
  0
LINE
  5
D6A4
330
36
100
AcDbEntity
  8
_0-3_仕上
  6
Continuous
 62
     7
100
AcDbLine
 10
251.2614774906146
 20
121.9888745090331
 30
0.0
 11
251.2614774906146
 21
133.9935801074891
 31
0.0
  0
LINE
  5
D6A5
330
36
100
AcDbEntity
  8
_0-3_仕上
  6
Continuous
 62
     7
100
AcDbLine
 10
249.4613315718161
 20
122.514360339451
 30
0.0
 11
249.4613315718161
 21
127.6012423526019
 31
0.0
  0
LINE
  5
D6A6
330
36
100
AcDbEntity
  8
_0-3_仕上
  6
Continuous
 62
     7
100
AcDbLine
 10
231.2613803999411
 20
93.99814525438818
 30
0.0
 11
249.4613315718161
 21
122.514360339451
 31
0.0
  0
LINE
  5
D6A7
330
36
100
AcDbEntity
  8
_0-4_建具
  6
Continuous
 62
     4
100
AcDbLine
 10
199.7613464653373
 20
137.9936555177207
 30
0.0
 11
199.7613464653373
 21
123.9936715423948
 31
0.0
  0
LINE
  5
D6A8
330
36
100
AcDbEntity
  8
_0-4_建具
  6
Continuous
 62
     4
100
AcDbLine
 10
199.7613464653373
 20
137.9936555177207
 30
0.0
 11
215.7613681457787
 21
137.9936555177207
 31
0.0
  0
LINE
  5
D6A9
330
36
100
AcDbEntity
  8
_0-4_建具
  6
Continuous
 62
     4
100
AcDbLine
 10
199.7613464653373
 20
123.9936715423948
 30
0.0
 11
215.7613681457787
 21
123.9936715423948
 31
0.0
  0
LINE
  5
D6AA
330
36
100
AcDbEntity
  8
_0-3_仕上
  6
Continuous
 62
     7
100
AcDbLine
 10
221.2614718348477
 20
143.993488672583
 30
0.0
 11
221.2614718348477
 21
183.9936828539295
 31
0.0
  0
LINE
  5
D6AB
330
36
100
AcDbEntity
  8
_0-3_仕上
  6
Continuous
 62
     7
100
AcDbLine
 10
223.2612295794779
 20
143.993488672583
 30
0.0
 11
223.2612295794779
 21
183.9936828539295
 31
0.0
  0
LINE
  5
D6AC
330
36
100
AcDbEntity
  8
_0-3_仕上
  6
Continuous
 62
     7
100
AcDbLine
 10
259.2613483505929
 20
143.993488672583
 30
0.0
 11
259.2613483505929
 21
183.9936828539295
 31
0.0
  0
LINE
  5
D6AD
330
36
100
AcDbEntity
  8
_0-3_仕上
  6
Continuous
 62
     7
100
AcDbLine
 10
261.261106095224
 20
143.993488672583
 30
0.0
 11
261.261106095224
 21
183.9936828539295
 31
0.0
  0
LINE
  5
D6AE
330
36
100
AcDbEntity
  8
_0-4_建具
  6
Continuous
 62
     4
100
AcDbLine
 10
200.2613558916159
 20
93.99366588662791
 30
0.0
 11
200.2613558916159
 21
41.99352543507098
 31
0.0
  0
LINE
  5
D6AF
330
36
100
AcDbEntity
  8
_0-4_建具
  6
Continuous
 62
     4
100
AcDbLine
 10
216.2613775720574
 20
93.99366588662791
 30
0.0
 11
200.2613558916159
 21
93.99366588662791
 31
0.0
  0
LINE
  5
D6B0
330
36
100
AcDbEntity
  8
_0-4_建具
  6
Continuous
 62
     4
100
AcDbLine
 10
216.2613775720574
 20
41.99352543507098
 30
0.0
 11
200.2613558916159
 21
41.99352543507098
 31
0.0
  0
LINE
  5
D6B1
330
36
100
AcDbEntity
  8
_0-3_仕上
  6
Continuous
 62
     7
100
AcDbLine
 10
246.3865255646374
 20
88.47788441039687
 30
0.0
 11
245.6365114252185
 21
87.17886775981765
 31
0.0
  0
LINE
  5
D6B2
330
36
100
AcDbEntity
  8
_0-3_仕上
  6
Continuous
 62
     7
100
AcDbLine
 10
243.2616066306364
 20
92.19351996782895
 30
0.0
 11
243.2616066306364
 21
93.99366588662791
 31
0.0
  0
LINE
  5
D6B3
330
36
100
AcDbEntity
  8
_0-3_仕上
  6
Continuous
 62
     7
100
AcDbLine
 10
243.2616066306364
 20
93.99366588662791
 30
0.0
 11
251.2614774906146
 21
93.99366588662791
 31
0.0
  0
LINE
  5
D6B4
330
36
100
AcDbEntity
  8
_0-3_仕上
  6
Continuous
 62
     7
100
AcDbLine
 10
248.1365585566136
 20
88.47788441039687
 30
0.0
 11
248.8865726960321
 21
87.17886775981765
 31
0.0
  0
LINE
  5
D6B5
330
36
100
AcDbEntity
  8
_0-3_仕上
  6
Continuous
 62
     7
100
AcDbLine
 10
244.8691397357279
 20
92.19351996782895
 30
0.0
 11
243.2616066306364
 21
92.19351996782895
 31
0.0
  0
LINE
  5
D6B6
330
36
100
AcDbEntity
  8
_0-3_仕上
  6
Continuous
 62
     7
100
AcDbLine
 10
236.1363323259188
 20
47.50902695081708
 30
0.0
 11
236.8863464653373
 21
48.80804360139585
 31
0.0
  0
LINE
  5
D6B7
330
36
100
AcDbEntity
  8
_0-3_仕上
  6
Continuous
 62
     7
100
AcDbLine
 10
239.2615312204048
 20
43.7936713538695
 30
0.0
 11
239.2615312204048
 21
41.99352543507098
 31
0.0
  0
LINE
  5
D6B8
330
36
100
AcDbEntity
  8
_0-3_仕上
  6
Continuous
 62
     7
100
AcDbLine
 10
239.2615312204048
 20
41.99352543507098
 30
0.0
 11
231.2613803999411
 21
41.99352543507098
 31
0.0
  0
LINE
  5
D6B9
330
36
100
AcDbEntity
  8
_0-3_仕上
  6
Continuous
 62
     7
100
AcDbLine
 10
237.6537181548283
 20
43.7936713538695
 30
0.0
 11
239.2615312204048
 21
43.7936713538695
 31
0.0
  0
LINE
  5
D6BA
330
36
100
AcDbEntity
  8
_0-3_仕上
  6
Continuous
 62
     7
100
AcDbLine
 10
234.3865792944275
 20
47.50902695081708
 30
0.0
 11
233.6365651550091
 21
48.80804360139585
 31
0.0
  0
LINE
  5
D6BB
330
36
100
AcDbEntity
  8
_0-3_仕上
  6
Continuous
 62
     7
100
AcDbLine
 10
231.2613803999411
 20
53.99823103352741
 30
0.0
 11
231.2613803999411
 21
41.99352543507098
 31
0.0
  0
LINE
  5
D6BC
330
36
100
AcDbEntity
  8
_0-3_仕上
  6
Continuous
 62
     7
100
AcDbLine
 10
233.0615263187397
 20
53.47274520310907
 30
0.0
 11
233.0615263187397
 21
48.38586318995726
 31
0.0
  0
LINE
  5
D6BD
330
36
100
AcDbEntity
  8
_0-3_仕上
  6
Continuous
 62
     7
100
AcDbLine
 10
251.2614774906146
 20
81.98896028817193
 30
0.0
 11
251.2614774906146
 21
93.99366588662791
 31
0.0
  0
LINE
  5
D6BE
330
36
100
AcDbEntity
  8
_0-3_仕上
  6
Continuous
 62
     7
100
AcDbLine
 10
249.4613315718161
 20
82.51444611858891
 30
0.0
 11
249.4613315718161
 21
87.60132813174072
 31
0.0
  0
LINE
  5
D6BF
330
36
100
AcDbEntity
  8
_0-4_建具
  6
Continuous
 62
     4
100
AcDbLine
 10
221.2614718348477
 20
65.99369793597657
 30
0.0
 11
231.2613803999411
 21
65.99369793597657
 31
0.0
  0
LINE
  5
D6C0
330
36
100
AcDbEntity
  8
_0-4_建具
  6
Continuous
 62
     4
100
AcDbLine
 10
231.2613803999411
 20
65.99369793597657
 30
0.0
 11
251.2614774906146
 21
65.99369793597657
 31
0.0
  0
LINE
  5
D6C1
330
36
100
AcDbEntity
  8
_0-4_建具
  6
Continuous
 62
     4
100
AcDbLine
 10
251.2614774906146
 20
65.99369793597657
 30
0.0
 11
261.261386055709
 21
65.99369793597657
 31
0.0
  0
LINE
  5
D6C2
330
36
100
AcDbEntity
  8
_0-3_仕上
  6
Continuous
 62
     7
100
AcDbLine
 10
231.2613803999411
 20
53.99823103352741
 30
0.0
 11
237.0025300666284
 21
62.99364137830185
 31
0.0
  0
LINE
  5
D6C3
330
36
100
AcDbEntity
  8
_0-3_仕上
  6
Continuous
 62
     7
100
AcDbLine
 10
244.0230991499411
 20
73.99356879595394
 30
0.0
 11
249.4613315718161
 21
82.51444611858891
 31
0.0
  0
LINE
  5
D6C4
330
36
100
AcDbEntity
  8
_0-3_仕上
  6
Continuous
 62
     7
100
AcDbLine
 10
233.0615263187397
 20
53.47274520310907
 30
0.0
 11
239.1380686465027
 21
62.99364137830185
 31
0.0
  0
LINE
  5
D6C5
330
36
100
AcDbEntity
  8
_0-3_仕上
  6
Continuous
 62
     7
100
AcDbLine
 10
246.1586377298154
 20
73.99356879595394
 30
0.0
 11
251.2614774906146
 21
81.98896028817193
 31
0.0
  0
LINE
  5
D6C6
330
36
100
AcDbEntity
  8
_0-0_型材図
  6
Continuous
 62
     7
100
AcDbLine
 10
223.2612295794779
 20
173.9934943283504
 30
0.0
 11
259.2613483505929
 21
143.993488672583
 31
0.0
  0
LINE
  5
D6C7
330
36
100
AcDbEntity
  8
_0-0_型材図
  6
Continuous
 62
     7
100
AcDbLine
 10
259.2613483505929
 20
173.9934943283504
 30
0.0
 11
223.2612295794779
 21
143.993488672583
 31
0.0
  0
LINE
  5
D6C8
330
36
100
AcDbEntity
  8
_0-0_型材図
  6
Continuous
 62
     7
100
AcDbLine
 10
223.2612295794779
 20
173.9934943283504
 30
0.0
 11
259.2613483505929
 21
173.9934943283504
 31
0.0
  0
LINE
  5
D6C9
330
36
100
AcDbEntity
  8
_0-2_寸法
  6
Continuous
 62
     4
100
AcDbLine
 10
221.2611918743623
 20
183.9936828539295
 30
0.0
 11
261.261106095224
 21
183.9936828539295
 31
0.0
  0
LINE
  5
D6CA
330
36
100
AcDbEntity
  8
_0-3_仕上
  6
Continuous
 62
     7
100
AcDbLine
 10
246.3862456041525
 20
48.47797018953564
 30
0.0
 11
245.6362314647336
 21
47.17895353895642
 31
0.0
  0
LINE
  5
D6CB
330
36
100
AcDbEntity
  8
_0-3_仕上
  6
Continuous
 62
     7
100
AcDbLine
 10
243.2613266701519
 20
52.19360574696771
 30
0.0
 11
243.2613266701519
 21
53.99347170528084
 31
0.0
  0
LINE
  5
D6CC
330
36
100
AcDbEntity
  8
_0-3_仕上
  6
Continuous
 62
     7
100
AcDbLine
 10
243.2613266701519
 20
53.99347170528084
 30
0.0
 11
251.2611975301297
 21
53.99347170528084
 31
0.0
  0
LINE
  5
D6CD
330
36
100
AcDbEntity
  8
_0-3_仕上
  6
Continuous
 62
     7
100
AcDbLine
 10
248.1362785961283
 20
48.47797018953564
 30
0.0
 11
248.8862927355472
 21
47.17895353895642
 31
0.0
  0
LINE
  5
D6CE
330
36
100
AcDbEntity
  8
_0-3_仕上
  6
Continuous
 62
     7
100
AcDbLine
 10
244.8691397357279
 20
52.19360574696771
 30
0.0
 11
243.2613266701519
 21
52.19360574696771
 31
0.0
  0
LINE
  5
D6CF
330
36
100
AcDbEntity
  8
_0-3_仕上
  6
Continuous
 62
     7
100
AcDbLine
 10
251.2611975301297
 20
41.98904606731071
 30
0.0
 11
251.2611975301297
 21
53.99347170528084
 31
0.0
  0
LINE
  5
D6D0
330
36
100
AcDbEntity
  8
_0-4_建具
  6
Continuous
 62
     4
100
AcDbLine
 10
221.2611918743623
 20
123.9936715423948
 30
0.0
 11
221.2611918743623
 21
41.99352543507098
 31
0.0
  0
LINE
  5
D6D1
330
36
100
AcDbEntity
  8
_0-4_建具
  6
Continuous
 62
     4
100
AcDbLine
 10
231.2613803999411
 20
123.9936715423948
 30
0.0
 11
231.2613803999411
 21
41.99352543507098
 31
0.0
  0
LINE
  5
D6D2
330
36
100
AcDbEntity
  8
_0-3_仕上
  6
Continuous
 62
     7
100
AcDbLine
 10
249.4613315718161
 20
41.99352543507098
 30
0.0
 11
249.4613315718161
 21
47.6014139108795
 31
0.0
  0
LINE
  5
D6D3
330
36
100
AcDbEntity
  8
_0-4_建具
  6
Continuous
 62
     4
100
AcDbLine
 10
251.2611975301297
 20
123.9936715423948
 30
0.0
 11
251.2611975301297
 21
41.99352543507098
 31
0.0
  0
LINE
  5
D6D4
330
36
100
AcDbEntity
  8
_0-4_建具
  6
Continuous
 62
     4
100
AcDbLine
 10
261.261106095224
 20
123.9936715423948
 30
0.0
 11
261.261106095224
 21
41.99352543507098
 31
0.0
  0
LINE
  5
D6D5
330
36
100
AcDbEntity
  8
_0-0_型材図
  6
Continuous
 62
     7
100
AcDbLine
 10
151.5815467926177
 20
263.7211097437096
 30
0.0
 11
81.58162691598864
 21
263.7211097437096
 31
0.0
  0
LINE
  5
D6D6
330
36
100
AcDbEntity
  8
_0-0_型材図
  6
Continuous
 62
     7
100
AcDbLine
 10
148.5814902349439
 20
266.7208863408989
 30
0.0
 11
84.58168347366244
 21
266.7208863408989
 31
0.0
  0
LINE
  5
D6D7
330
36
100
AcDbEntity
  8
_0-2_寸法
  6
Continuous
 62
     7
100
AcDbLine
 10
145.0814242509914
 20
333.7210296203386
 30
0.0
 11
145.0814242509914
 21
266.7208863408989
 31
0.0
  0
LINE
  5
D6D8
330
36
100
AcDbEntity
  8
_0-2_寸法
  6
Continuous
 62
     7
100
AcDbLine
 10
151.5815467926177
 20
373.7209438412008
 30
0.0
 11
81.58162691598864
 21
373.7209438412008
 31
0.0
  0
LINE
  5
D6D9
330
36
100
AcDbEntity
  8
_0-0_型材図
  6
Continuous
 62
     7
100
AcDbLine
 10
81.58162691598864
 20
263.7211097437096
 30
0.0
 11
81.58162691598864
 21
373.7209438412008
 31
0.0
  0
LINE
  5
D6DA
330
36
100
AcDbEntity
  8
_0-0_型材図
  6
Continuous
 62
     7
100
AcDbLine
 10
151.5815467926177
 20
373.7209438412008
 30
0.0
 11
151.5815467926177
 21
263.7211097437096
 31
0.0
  0
LINE
  5
D6DB
330
36
100
AcDbEntity
  8
_0-0_型材図
  6
Continuous
 62
     7
100
AcDbLine
 10
148.5814902349439
 20
370.7208872835265
 30
0.0
 11
148.5814902349439
 21
263.7211097437096
 31
0.0
  0
LINE
  5
D6DC
330
36
100
AcDbEntity
  8
_0-0_型材図
  6
Continuous
 62
     7
100
AcDbLine
 10
84.58168347366244
 20
263.7211097437096
 30
0.0
 11
84.58168347366244
 21
370.7208872835265
 31
0.0
  0
LINE
  5
D6DD
330
36
100
AcDbEntity
  8
_0-0_型材図
  6
Continuous
 62
     7
100
AcDbLine
 10
86.08171175249934
 20
266.7208863408989
 30
0.0
 11
86.08171175249934
 21
369.2208590046901
 31
0.0
  0
LINE
  5
D6DE
330
36
100
AcDbEntity
  8
_0-2_寸法
  6
Continuous
 62
     7
100
AcDbLine
 10
88.08174945761539
 20
266.7208863408989
 30
0.0
 11
88.08174945761539
 21
367.2211012600594
 31
0.0
  0
LINE
  5
D6DF
330
36
100
AcDbEntity
  8
_0-2_寸法
  6
Continuous
 62
     7
100
AcDbLine
 10
147.081461956107
 20
369.2208590046901
 30
0.0
 11
86.08171175249934
 21
369.2208590046901
 31
0.0
  0
LINE
  5
D6E0
330
36
100
AcDbEntity
  8
_0-0_型材図
  6
Continuous
 62
     7
100
AcDbLine
 10
147.081461956107
 20
369.2208590046901
 30
0.0
 11
147.081461956107
 21
266.7208863408989
 31
0.0
  0
LINE
  5
D6E1
330
36
100
AcDbEntity
  8
_0-2_寸法
  6
Continuous
 62
     7
100
AcDbLine
 10
145.0814242509914
 20
367.2211012600594
 30
0.0
 11
88.08174945761539
 21
367.2211012600594
 31
0.0
  0
LINE
  5
D6E2
330
36
100
AcDbEntity
  8
_0-2_寸法
  6
Continuous
 62
     7
100
AcDbLine
 10
145.0814242509914
 20
367.2211012600594
 30
0.0
 11
145.0814242509914
 21
266.7208863408989
 31
0.0
  0
LINE
  5
D6E3
330
36
100
AcDbEntity
  8
_0-2_寸法
  6
Continuous
 62
     7
100
AcDbLine
 10
151.5815467926177
 20
370.7208872835265
 30
0.0
 11
81.58162691598864
 21
370.7208872835265
 31
0.0
  0
LINE
  5
D6E4
330
36
100
AcDbEntity
  8
_0-2_寸法
  6
Continuous
 62
     7
100
AcDbLine
 10
86.08171175249934
 20
369.2208590046901
 30
0.0
 11
88.08174945761539
 21
367.2211012600594
 31
0.0
  0
LINE
  5
D6E5
330
36
100
AcDbEntity
  8
_0-2_寸法
  6
Continuous
 62
     7
100
AcDbLine
 10
145.0814242509914
 20
367.2211012600594
 30
0.0
 11
147.081461956107
 21
369.2208590046901
 31
0.0
  0
LINE
  5
D6E6
330
36
100
AcDbEntity
  8
_0-0_型材図
  6
Continuous
 62
     7
100
AcDbLine
 10
151.5815467926177
 20
63.72097871843312
 30
0.0
 11
81.58162691598864
 21
63.72097871843312
 31
0.0
  0
LINE
  5
D6E7
330
36
100
AcDbEntity
  8
_0-0_型材図
  6
Continuous
 62
     7
100
AcDbLine
 10
148.5814902349439
 20
66.72103527610648
 30
0.0
 11
84.58168347366244
 21
66.72103527610648
 31
0.0
  0
LINE
  5
D6E8
330
36
100
AcDbEntity
  8
_0-2_寸法
  6
Continuous
 62
     7
100
AcDbLine
 10
145.0814242509914
 20
133.7211785555462
 30
0.0
 11
145.0814242509914
 21
66.72103527610648
 31
0.0
  0
LINE
  5
D6E9
330
36
100
AcDbEntity
  8
_0-2_寸法
  6
Continuous
 62
     7
100
AcDbLine
 10
151.5815467926177
 20
173.7210927764079
 30
0.0
 11
81.58162691598864
 21
173.7210927764079
 31
0.0
  0
LINE
  5
D6EA
330
36
100
AcDbEntity
  8
_0-0_型材図
  6
Continuous
 62
     7
100
AcDbLine
 10
81.58162691598864
 20
63.72097871843312
 30
0.0
 11
81.58162691598864
 21
173.7210927764079
 31
0.0
  0
LINE
  5
D6EB
330
36
100
AcDbEntity
  8
_0-0_型材図
  6
Continuous
 62
     7
100
AcDbLine
 10
151.5815467926177
 20
173.7210927764079
 30
0.0
 11
151.5815467926177
 21
63.72097871843312
 31
0.0
  0
LINE
  5
D6EC
330
36
100
AcDbEntity
  8
_0-0_型材図
  6
Continuous
 62
     7
100
AcDbLine
 10
148.5814902349439
 20
170.721036218734
 30
0.0
 11
148.5814902349439
 21
63.72097871843312
 31
0.0
  0
LINE
  5
D6ED
330
36
100
AcDbEntity
  8
_0-0_型材図
  6
Continuous
 62
     7
100
AcDbLine
 10
84.58168347366244
 20
63.72097871843312
 30
0.0
 11
84.58168347366244
 21
170.721036218734
 31
0.0
  0
LINE
  5
D6EE
330
36
100
AcDbEntity
  8
_0-0_型材図
  6
Continuous
 62
     7
100
AcDbLine
 10
86.08171175249934
 20
66.72103527610648
 30
0.0
 11
86.08171175249934
 21
169.2210079398966
 31
0.0
  0
LINE
  5
D6EF
330
36
100
AcDbEntity
  8
_0-2_寸法
  6
Continuous
 62
     7
100
AcDbLine
 10
88.08174945761539
 20
66.72103527610648
 30
0.0
 11
88.08174945761539
 21
167.2209702347816
 31
0.0
  0
LINE
  5
D6F0
330
36
100
AcDbEntity
  8
_0-2_寸法
  6
Continuous
 62
     7
100
AcDbLine
 10
147.081461956107
 20
169.2210079398966
 30
0.0
 11
86.08171175249934
 21
169.2210079398966
 31
0.0
  0
LINE
  5
D6F1
330
36
100
AcDbEntity
  8
_0-0_型材図
  6
Continuous
 62
     7
100
AcDbLine
 10
147.081461956107
 20
169.2210079398966
 30
0.0
 11
147.081461956107
 21
66.72103527610648
 31
0.0
  0
LINE
  5
D6F2
330
36
100
AcDbEntity
  8
_0-2_寸法
  6
Continuous
 62
     7
100
AcDbLine
 10
145.0814242509914
 20
167.2209702347816
 30
0.0
 11
88.08174945761539
 21
167.2209702347816
 31
0.0
  0
LINE
  5
D6F3
330
36
100
AcDbEntity
  8
_0-2_寸法
  6
Continuous
 62
     7
100
AcDbLine
 10
145.0814242509914
 20
167.2209702347816
 30
0.0
 11
145.0814242509914
 21
66.72103527610648
 31
0.0
  0
LINE
  5
D6F4
330
36
100
AcDbEntity
  8
_0-2_寸法
  6
Continuous
 62
     7
100
AcDbLine
 10
151.5815467926177
 20
170.721036218734
 30
0.0
 11
81.58162691598864
 21
170.721036218734
 31
0.0
  0
LINE
  5
D6F5
330
36
100
AcDbEntity
  8
_0-2_寸法
  6
Continuous
 62
     7
100
AcDbLine
 10
86.08171175249934
 20
169.2210079398966
 30
0.0
 11
88.08174945761539
 21
167.2209702347816
 31
0.0
  0
LINE
  5
D6F6
330
36
100
AcDbEntity
  8
_0-2_寸法
  6
Continuous
 62
     7
100
AcDbLine
 10
145.0814242509914
 20
167.2209702347816
 30
0.0
 11
147.081461956107
 21
169.2210079398966
 31
0.0
  0
LINE
  5
D6F7
330
36
100
AcDbEntity
  8
_0-0_型材図
  6
Continuous
 62
     7
100
AcDbLine
 10
125.1801532115369
 20
80.5715203524212
 30
0.0
 11
107.9827405365849
 21
80.5715203524212
 31
0.0
  0
LINE
  5
D6F8
330
36
100
AcDbEntity
  8
_0-0_型材図
  6
Continuous
 62
     7
100
AcDbLine
 10
127.8397778194034
 20
83.82158162323483
 30
0.0
 11
105.3231159287179
 21
83.82158162323483
 31
0.0
  0
LINE
  5
D6F9
330
36
100
AcDbEntity
  8
_0-0_型材図
  6
Continuous
 62
     7
100
AcDbLine
 10
129.1687502418817
 20
87.07164289404794
 30
0.0
 11
103.9944234667246
 21
87.07164289404794
 31
0.0
  0
LINE
  5
D6FA
330
36
100
AcDbEntity
  8
_0-0_型材図
  6
Continuous
 62
     7
100
AcDbLine
 10
129.5814119968286
 20
90.32170416486065
 30
0.0
 11
103.5814817512928
 21
90.32170416486065
 31
0.0
  0
LINE
  5
D6FB
330
36
100
AcDbEntity
  8
_0-0_型材図
  6
Continuous
 62
     7
100
AcDbLine
 10
129.1687502418817
 20
93.5714854751893
 30
0.0
 11
103.9944234667246
 21
93.5714854751893
 31
0.0
  0
LINE
  5
D6FC
330
36
100
AcDbEntity
  8
_0-0_型材図
  6
Continuous
 62
     7
100
AcDbLine
 10
127.8397778194034
 20
96.82154674600292
 30
0.0
 11
105.3231159287179
 21
96.82154674600292
 31
0.0
  0
LINE
  5
D6FD
330
36
100
AcDbEntity
  8
_0-0_型材図
  6
Continuous
 62
     7
100
AcDbLine
 10
125.1801532115369
 20
100.0716080168156
 30
0.0
 11
107.9827405365849
 21
100.0716080168156
 31
0.0
  0
LINE
  5
D6FE
330
36
100
AcDbEntity
  8
_0-3_仕上
  6
Continuous
 62
     4
100
AcDbLine
 10
381.2611287182932
 20
99.99349904148971
 30
0.0
 11
401.2612258089665
 21
99.99349904148971
 31
0.0
  0
LINE
  5
D6FF
330
36
100
AcDbEntity
  8
_0-5_その他
  6
Continuous
 62
     4
100
AcDbLine
 10
401.2612258089665
 20
99.99349904148971
 30
0.0
 11
399.7082849984572
 21
105.7892410027596
 31
0.0
  0
LINE
  5
D700
330
36
100
AcDbEntity
  8
_0-5_その他
  6
Continuous
 62
     4
100
AcDbLine
 10
401.2612258089665
 20
99.99349904148971
 30
0.0
 11
402.814166619475
 21
105.7892410027596
 31
0.0
  0
LINE
  5
D701
330
36
100
AcDbEntity
  8
_0-5_その他
  6
Continuous
 62
     4
100
AcDbLine
 10
401.2612258089665
 20
99.99349904148971
 30
0.0
 11
401.2612258089665
 21
188.8207615369649
 31
0.0
  0
LINE
  5
D702
330
36
100
AcDbEntity
  8
_0-3_仕上
  6
Continuous
 62
     4
100
AcDbLine
 10
381.2611287182932
 20
83.49346793476909
 30
0.0
 11
416.2612286368502
 21
83.49346793476909
 31
0.0
  0
LINE
  5
D703
330
36
100
AcDbEntity
  8
_0-3_仕上
  6
Continuous
 62
     4
100
AcDbLine
 10
381.2611287182932
 20
314.493623468373
 30
0.0
 11
416.2612286368502
 21
314.493623468373
 31
0.0
  0
LINE
  5
D704
330
36
100
AcDbEntity
  8
_0-5_その他
  6
Continuous
 62
     4
100
AcDbLine
 10
416.2612286368502
 20
83.49346793476909
 30
0.0
 11
414.7082878263407
 21
89.28892993555358
 31
0.0
  0
LINE
  5
D705
330
36
100
AcDbEntity
  8
_0-5_その他
  6
Continuous
 62
     4
100
AcDbLine
 10
416.2612286368502
 20
83.49346793476909
 30
0.0
 11
417.8141694473593
 21
89.28892993555358
 31
0.0
  0
LINE
  5
D706
330
36
100
AcDbEntity
  8
_0-5_その他
  6
Continuous
 62
     4
100
AcDbLine
 10
416.2612286368502
 20
314.9936328946508
 30
0.0
 11
416.2612286368502
 21
213.1168522705568
 31
0.0
  0
LINE
  5
D707
330
36
100
AcDbEntity
  8
_0-5_その他
  6
Continuous
 62
     4
100
AcDbLine
 10
416.2612286368502
 20
184.7168207867851
 30
0.0
 11
416.2612286368502
 21
83.49346793476909
 31
0.0
  0
LINE
  5
D708
330
36
100
AcDbEntity
  8
_0-5_その他
  6
Continuous
 62
     4
100
AcDbLine
 10
546.2611598250132
 20
316.4936611734886
 30
0.0
 11
546.2611598250132
 21
213.1750840514448
 31
0.0
  0
LINE
  5
D709
330
36
100
AcDbEntity
  8
_0-5_その他
  6
Continuous
 62
     4
100
AcDbLine
 10
546.2611598250132
 20
184.7750525676726
 30
0.0
 11
546.2611598250132
 21
81.49371019013894
 31
0.0
  0
ARC
  5
D70A
330
36
100
AcDbEntity
  8
_0-2_寸法
  6
Continuous
 62
     7
100
AcDbCircle
 10
372.7612484320362
 20
299.9936300667675
 30
0.0
 40
1.749999910708099
100
AcDbArc
 50
314.9995880126772
 51
314.9996490478379
  0
ARC
  5
D70B
330
36
100
AcDbEntity
  8
_0-2_寸法
  6
Continuous
 62
     7
100
AcDbCircle
 10
372.7612484320362
 20
299.9936300667675
 30
0.0
 40
1.749999910708099
100
AcDbArc
 50
300.0004730224779
 51
240.0005187988516
  0
ARC
  5
D70C
330
36
100
AcDbEntity
  8
_0-2_寸法
  6
Continuous
 62
     7
100
AcDbCircle
 10
372.7612484320362
 20
299.9936300667675
 30
0.0
 40
3.25000002945712
100
AcDbArc
 50
299.9999389648696
 51
312.6036529540757
  0
ARC
  5
D70D
330
36
100
AcDbEntity
  8
_0-2_寸法
  6
Continuous
 62
     7
100
AcDbCircle
 10
372.7612484320362
 20
299.9936300667675
 30
0.0
 40
3.25000002945712
100
AcDbArc
 50
137.3963470458828
 51
240.0000610351305
  0
ARC
  5
D70E
330
36
100
AcDbEntity
  8
_0-2_寸法
  6
Continuous
 62
     7
100
AcDbCircle
 10
359.761283309268
 20
255.9936404356738
 30
0.0
 40
1.749999910708099
100
AcDbArc
 50
134.9995880126771
 51
134.9996490478379
  0
ARC
  5
D70F
330
36
100
AcDbEntity
  8
_0-2_寸法
  6
Continuous
 62
     7
100
AcDbCircle
 10
359.761283309268
 20
255.9936404356738
 30
0.0
 40
1.749999910708099
100
AcDbArc
 50
120.0004730224779
 51
60.00051879885173
  0
ARC
  5
D710
330
36
100
AcDbEntity
  8
_0-2_寸法
  6
Continuous
 62
     7
100
AcDbCircle
 10
359.761283309268
 20
255.9936404356738
 30
0.0
 40
3.25000002945712
100
AcDbArc
 50
119.9999389648695
 51
132.6036529540757
  0
ARC
  5
D711
330
36
100
AcDbEntity
  8
_0-2_寸法
  6
Continuous
 62
     7
100
AcDbCircle
 10
359.761283309268
 20
255.9936404356738
 30
0.0
 40
3.25000002945712
100
AcDbArc
 50
317.3963470458828
 51
60.00006103513047
  0
ARC
  5
D712
330
36
100
AcDbEntity
  8
_0-2_寸法
  6
Continuous
 62
     7
100
AcDbCircle
 10
372.7612484320362
 20
259.9937158459058
 30
0.0
 40
1.749999910708099
100
AcDbArc
 50
314.9995880126772
 51
314.9996490478379
  0
ARC
  5
D713
330
36
100
AcDbEntity
  8
_0-2_寸法
  6
Continuous
 62
     7
100
AcDbCircle
 10
372.7612484320362
 20
259.9937158459058
 30
0.0
 40
1.749999910708099
100
AcDbArc
 50
300.0004730224779
 51
240.0005187988516
  0
ARC
  5
D714
330
36
100
AcDbEntity
  8
_0-2_寸法
  6
Continuous
 62
     7
100
AcDbCircle
 10
372.7612484320362
 20
259.9937158459058
 30
0.0
 40
3.25000002945712
100
AcDbArc
 50
299.9999389648696
 51
312.6036529540757
  0
ARC
  5
D715
330
36
100
AcDbEntity
  8
_0-2_寸法
  6
Continuous
 62
     7
100
AcDbCircle
 10
372.7612484320362
 20
259.9937158459058
 30
0.0
 40
3.25000002945712
100
AcDbArc
 50
137.3963470458828
 51
240.0000610351305
  0
ARC
  5
D716
330
36
100
AcDbEntity
  8
_0-2_寸法
  6
Continuous
 62
     7
100
AcDbCircle
 10
359.761283309268
 20
215.993726214813
 30
0.0
 40
1.749999910708099
100
AcDbArc
 50
134.9995880126771
 51
134.9996490478379
  0
ARC
  5
D717
330
36
100
AcDbEntity
  8
_0-2_寸法
  6
Continuous
 62
     7
100
AcDbCircle
 10
359.761283309268
 20
215.993726214813
 30
0.0
 40
1.749999910708099
100
AcDbArc
 50
120.0004730224779
 51
60.00051879885173
  0
ARC
  5
D718
330
36
100
AcDbEntity
  8
_0-2_寸法
  6
Continuous
 62
     7
100
AcDbCircle
 10
359.761283309268
 20
215.993726214813
 30
0.0
 40
3.25000002945712
100
AcDbArc
 50
119.9999389648695
 51
132.6036529540757
  0
ARC
  5
D719
330
36
100
AcDbEntity
  8
_0-2_寸法
  6
Continuous
 62
     7
100
AcDbCircle
 10
359.761283309268
 20
215.993726214813
 30
0.0
 40
3.25000002945712
100
AcDbArc
 50
317.3963470458828
 51
60.00006103513047
  0
ARC
  5
D71A
330
36
100
AcDbEntity
  8
_0-2_寸法
  6
Continuous
 62
     7
100
AcDbCircle
 10
372.7612484320362
 20
219.9935216645592
 30
0.0
 40
1.749999910708099
100
AcDbArc
 50
314.9995880126772
 51
314.9996490478379
  0
ARC
  5
D71B
330
36
100
AcDbEntity
  8
_0-2_寸法
  6
Continuous
 62
     7
100
AcDbCircle
 10
372.7612484320362
 20
219.9935216645592
 30
0.0
 40
1.749999910708099
100
AcDbArc
 50
300.0004730224779
 51
240.0005187988516
  0
ARC
  5
D71C
330
36
100
AcDbEntity
  8
_0-2_寸法
  6
Continuous
 62
     7
100
AcDbCircle
 10
372.7612484320362
 20
219.9935216645592
 30
0.0
 40
3.25000002945712
100
AcDbArc
 50
299.9999389648696
 51
312.6036529540757
  0
ARC
  5
D71D
330
36
100
AcDbEntity
  8
_0-2_寸法
  6
Continuous
 62
     7
100
AcDbCircle
 10
372.7612484320362
 20
219.9935216645592
 30
0.0
 40
3.25000002945712
100
AcDbArc
 50
137.3963470458828
 51
240.0000610351305
  0
ARC
  5
D71E
330
36
100
AcDbEntity
  8
_0-2_寸法
  6
Continuous
 62
     7
100
AcDbCircle
 10
359.761283309268
 20
175.9935320334659
 30
0.0
 40
1.749999910708099
100
AcDbArc
 50
134.9995880126771
 51
134.9996490478379
  0
ARC
  5
D71F
330
36
100
AcDbEntity
  8
_0-2_寸法
  6
Continuous
 62
     7
100
AcDbCircle
 10
359.761283309268
 20
175.9935320334659
 30
0.0
 40
1.749999910708099
100
AcDbArc
 50
120.0004730224779
 51
60.00051879885173
  0
ARC
  5
D720
330
36
100
AcDbEntity
  8
_0-2_寸法
  6
Continuous
 62
     7
100
AcDbCircle
 10
359.761283309268
 20
175.9935320334659
 30
0.0
 40
3.25000002945712
100
AcDbArc
 50
119.9999389648695
 51
132.6036529540757
  0
ARC
  5
D721
330
36
100
AcDbEntity
  8
_0-2_寸法
  6
Continuous
 62
     7
100
AcDbCircle
 10
359.761283309268
 20
175.9935320334659
 30
0.0
 40
3.25000002945712
100
AcDbArc
 50
317.3963470458828
 51
60.00006103513047
  0
ARC
  5
D722
330
36
100
AcDbEntity
  8
_0-2_寸法
  6
Continuous
 62
     7
100
AcDbCircle
 10
372.7612484320362
 20
179.993607443698
 30
0.0
 40
1.749999910708099
100
AcDbArc
 50
314.9995880126772
 51
314.9996490478379
  0
ARC
  5
D723
330
36
100
AcDbEntity
  8
_0-2_寸法
  6
Continuous
 62
     7
100
AcDbCircle
 10
372.7612484320362
 20
179.993607443698
 30
0.0
 40
1.749999910708099
100
AcDbArc
 50
300.0004730224779
 51
240.0005187988516
  0
ARC
  5
D724
330
36
100
AcDbEntity
  8
_0-2_寸法
  6
Continuous
 62
     7
100
AcDbCircle
 10
372.7612484320362
 20
179.993607443698
 30
0.0
 40
3.25000002945712
100
AcDbArc
 50
299.9999389648696
 51
312.6036529540757
  0
ARC
  5
D725
330
36
100
AcDbEntity
  8
_0-2_寸法
  6
Continuous
 62
     7
100
AcDbCircle
 10
372.7612484320362
 20
179.993607443698
 30
0.0
 40
3.25000002945712
100
AcDbArc
 50
137.3963470458828
 51
240.0000610351305
  0
ARC
  5
D726
330
36
100
AcDbEntity
  8
_0-2_寸法
  6
Continuous
 62
     7
100
AcDbCircle
 10
359.761283309268
 20
135.9936178126051
 30
0.0
 40
1.749999910708099
100
AcDbArc
 50
134.9995880126771
 51
134.9996490478379
  0
ARC
  5
D727
330
36
100
AcDbEntity
  8
_0-2_寸法
  6
Continuous
 62
     7
100
AcDbCircle
 10
359.761283309268
 20
135.9936178126051
 30
0.0
 40
1.749999910708099
100
AcDbArc
 50
120.0004730224779
 51
60.00051879885173
  0
ARC
  5
D728
330
36
100
AcDbEntity
  8
_0-2_寸法
  6
Continuous
 62
     7
100
AcDbCircle
 10
359.761283309268
 20
135.9936178126051
 30
0.0
 40
3.25000002945712
100
AcDbArc
 50
119.9999389648695
 51
132.6036529540757
  0
ARC
  5
D729
330
36
100
AcDbEntity
  8
_0-2_寸法
  6
Continuous
 62
     7
100
AcDbCircle
 10
359.761283309268
 20
135.9936178126051
 30
0.0
 40
3.25000002945712
100
AcDbArc
 50
317.3963470458828
 51
60.00006103513047
  0
ARC
  5
D72A
330
36
100
AcDbEntity
  8
_0-2_寸法
  6
Continuous
 62
     7
100
AcDbCircle
 10
372.7612484320362
 20
139.9936932228368
 30
0.0
 40
1.749999910708099
100
AcDbArc
 50
314.9995880126772
 51
314.9996490478379
  0
ARC
  5
D72B
330
36
100
AcDbEntity
  8
_0-2_寸法
  6
Continuous
 62
     7
100
AcDbCircle
 10
372.7612484320362
 20
139.9936932228368
 30
0.0
 40
1.749999910708099
100
AcDbArc
 50
300.0004730224779
 51
240.0005187988516
  0
ARC
  5
D72C
330
36
100
AcDbEntity
  8
_0-2_寸法
  6
Continuous
 62
     7
100
AcDbCircle
 10
372.7612484320362
 20
139.9936932228368
 30
0.0
 40
3.25000002945712
100
AcDbArc
 50
299.9999389648696
 51
312.6036529540757
  0
ARC
  5
D72D
330
36
100
AcDbEntity
  8
_0-2_寸法
  6
Continuous
 62
     7
100
AcDbCircle
 10
372.7612484320362
 20
139.9936932228368
 30
0.0
 40
3.25000002945712
100
AcDbArc
 50
137.3963470458828
 51
240.0000610351305
  0
ARC
  5
D72E
330
36
100
AcDbEntity
  8
_0-2_寸法
  6
Continuous
 62
     7
100
AcDbCircle
 10
359.761283309268
 20
95.99370359174395
 30
0.0
 40
1.749999910708099
100
AcDbArc
 50
134.9995880126771
 51
134.9996490478379
  0
ARC
  5
D72F
330
36
100
AcDbEntity
  8
_0-2_寸法
  6
Continuous
 62
     7
100
AcDbCircle
 10
359.761283309268
 20
95.99370359174395
 30
0.0
 40
1.749999910708099
100
AcDbArc
 50
120.0004730224779
 51
60.00051879885173
  0
ARC
  5
D730
330
36
100
AcDbEntity
  8
_0-2_寸法
  6
Continuous
 62
     7
100
AcDbCircle
 10
359.761283309268
 20
95.99370359174395
 30
0.0
 40
3.25000002945712
100
AcDbArc
 50
119.9999389648695
 51
132.6036529540757
  0
ARC
  5
D731
330
36
100
AcDbEntity
  8
_0-2_寸法
  6
Continuous
 62
     7
100
AcDbCircle
 10
359.761283309268
 20
95.99370359174395
 30
0.0
 40
3.25000002945712
100
AcDbArc
 50
317.3963470458828
 51
60.00006103513047
  0
ARC
  5
D732
330
36
100
AcDbEntity
  8
_0-3_仕上
  6
Continuous
 62
     7
100
AcDbCircle
 10
247.2614020803831
 20
129.9935046972575
 30
0.0
 40
1.749999910708099
100
AcDbArc
 50
314.9995880126772
 51
314.9996490478379
  0
ARC
  5
D733
330
36
100
AcDbEntity
  8
_0-3_仕上
  6
Continuous
 62
     7
100
AcDbCircle
 10
247.2614020803831
 20
129.9935046972575
 30
0.0
 40
1.749999910708099
100
AcDbArc
 50
300.0004730224779
 51
240.0005187988516
  0
ARC
  5
D734
330
36
100
AcDbEntity
  8
_0-3_仕上
  6
Continuous
 62
     7
100
AcDbCircle
 10
247.2614020803831
 20
129.9935046972575
 30
0.0
 40
3.25000002945712
100
AcDbArc
 50
299.9999389648696
 51
312.6036529540757
  0
ARC
  5
D735
330
36
100
AcDbEntity
  8
_0-3_仕上
  6
Continuous
 62
     7
100
AcDbCircle
 10
247.2614020803831
 20
129.9935046972575
 30
0.0
 40
3.25000002945712
100
AcDbArc
 50
137.3963470458828
 51
240.0000610351305
  0
ARC
  5
D736
330
36
100
AcDbEntity
  8
_0-3_仕上
  6
Continuous
 62
     7
100
AcDbCircle
 10
235.2614558101732
 20
85.9935150661647
 30
0.0
 40
1.749999910708099
100
AcDbArc
 50
134.9995880126771
 51
134.9996490478379
  0
ARC
  5
D737
330
36
100
AcDbEntity
  8
_0-3_仕上
  6
Continuous
 62
     7
100
AcDbCircle
 10
235.2614558101732
 20
85.9935150661647
 30
0.0
 40
1.749999910708099
100
AcDbArc
 50
120.0004730224779
 51
60.00051879885173
  0
ARC
  5
D738
330
36
100
AcDbEntity
  8
_0-3_仕上
  6
Continuous
 62
     7
100
AcDbCircle
 10
235.2614558101732
 20
85.9935150661647
 30
0.0
 40
3.25000002945712
100
AcDbArc
 50
119.9999389648695
 51
132.6036529540757
  0
ARC
  5
D739
330
36
100
AcDbEntity
  8
_0-3_仕上
  6
Continuous
 62
     7
100
AcDbCircle
 10
235.2614558101732
 20
85.9935150661647
 30
0.0
 40
3.25000002945712
100
AcDbArc
 50
317.3963470458828
 51
60.00006103513047
  0
ARC
  5
D73A
330
36
100
AcDbEntity
  8
_0-3_仕上
  6
Continuous
 62
     7
100
AcDbCircle
 10
247.2614020803831
 20
89.99359047639584
 30
0.0
 40
1.749999910708099
100
AcDbArc
 50
314.9995880126772
 51
314.9996490478379
  0
ARC
  5
D73B
330
36
100
AcDbEntity
  8
_0-3_仕上
  6
Continuous
 62
     7
100
AcDbCircle
 10
247.2614020803831
 20
89.99359047639584
 30
0.0
 40
1.749999910708099
100
AcDbArc
 50
300.0004730224779
 51
240.0005187988516
  0
ARC
  5
D73C
330
36
100
AcDbEntity
  8
_0-3_仕上
  6
Continuous
 62
     7
100
AcDbCircle
 10
247.2614020803831
 20
89.99359047639584
 30
0.0
 40
3.25000002945712
100
AcDbArc
 50
299.9999389648696
 51
312.6036529540757
  0
ARC
  5
D73D
330
36
100
AcDbEntity
  8
_0-3_仕上
  6
Continuous
 62
     7
100
AcDbCircle
 10
247.2614020803831
 20
89.99359047639584
 30
0.0
 40
3.25000002945712
100
AcDbArc
 50
137.3963470458828
 51
240.0000610351305
  0
ARC
  5
D73E
330
36
100
AcDbEntity
  8
_0-3_仕上
  6
Continuous
 62
     7
100
AcDbCircle
 10
235.2614558101732
 20
45.99360084530258
 30
0.0
 40
1.749999910708099
100
AcDbArc
 50
134.9995880126771
 51
134.9996490478379
  0
ARC
  5
D73F
330
36
100
AcDbEntity
  8
_0-3_仕上
  6
Continuous
 62
     7
100
AcDbCircle
 10
235.2614558101732
 20
45.99360084530258
 30
0.0
 40
1.749999910708099
100
AcDbArc
 50
120.0004730224779
 51
60.00051879885173
  0
ARC
  5
D740
330
36
100
AcDbEntity
  8
_0-3_仕上
  6
Continuous
 62
     7
100
AcDbCircle
 10
235.2614558101732
 20
45.99360084530258
 30
0.0
 40
3.25000002945712
100
AcDbArc
 50
119.9999389648695
 51
132.6036529540757
  0
ARC
  5
D741
330
36
100
AcDbEntity
  8
_0-3_仕上
  6
Continuous
 62
     7
100
AcDbCircle
 10
235.2614558101732
 20
45.99360084530258
 30
0.0
 40
3.25000002945712
100
AcDbArc
 50
317.3963470458828
 51
60.00006103513047
  0
ARC
  5
D742
330
36
100
AcDbEntity
  8
_0-3_仕上
  6
Continuous
 62
     7
100
AcDbCircle
 10
247.2611221198977
 20
49.99367625553464
 30
0.0
 40
1.749999910708099
100
AcDbArc
 50
300.0004730224779
 51
240.0005187988516
  0
ARC
  5
D743
330
36
100
AcDbEntity
  8
_0-3_仕上
  6
Continuous
 62
     7
100
AcDbCircle
 10
247.2611221198977
 20
49.99367625553464
 30
0.0
 40
3.25000002945712
100
AcDbArc
 50
137.3963470458828
 51
240.0000610351305
  0
CIRCLE
  5
D744
330
36
100
AcDbEntity
  8
_0-2_寸法
  6
Continuous
 62
     7
100
AcDbCircle
 10
91.62716904014407
 20
310.5190244622788
 30
0.0
 40
3.500000094815109
  0
CIRCLE
  5
D745
330
36
100
AcDbEntity
  8
_0-0_型材図
  6
Continuous
 62
     7
100
AcDbCircle
 10
116.5814468740609
 20
340.3216579760945
 30
0.0
 40
13.00000011782849
  0
CIRCLE
  5
D746
330
36
100
AcDbEntity
  8
_0-0_型材図
  6
Continuous
 62
     7
100
AcDbCircle
 10
116.5814468740609
 20
340.3216579760945
 30
0.0
 40
14.99999954709675
  0
CIRCLE
  5
D747
330
36
100
AcDbEntity
  8
_0-2_寸法
  6
Continuous
 62
     7
100
AcDbCircle
 10
91.62716904014407
 20
110.5188934370014
 30
0.0
 40
3.500000094815109
  0
CIRCLE
  5
D748
330
36
100
AcDbEntity
  8
_0-0_型材図
  6
Continuous
 62
     7
100
AcDbCircle
 10
116.5814468740609
 20
90.32170416486065
 30
0.0
 40
13.00000011782849
  0
CIRCLE
  5
D749
330
36
100
AcDbEntity
  8
_0-0_型材図
  6
Continuous
 62
     7
100
AcDbCircle
 10
116.5814468740609
 20
90.32170416486065
 30
0.0
 40
14.99999954709675
  0
TEXT
  5
D74A
330
36
100
AcDbEntity
  8
_0-0_型材図
 62
     7
100
AcDbText
 10
502.9611756140305
 20
199.7935327875691
 30
0.0
 40
6.4
  1
10
100
AcDbText
  0
TEXT
  5
D74B
330
36
100
AcDbEntity
  8
_0-0_型材図
 62
     7
100
AcDbText
 10
492.9609870884523
 20
199.7935327875691
 30
0.0
 40
6.4
  1
10
100
AcDbText
  0
TEXT
  5
D74C
330
36
100
AcDbEntity
  8
_0-0_型材図
 62
     7
100
AcDbText
 10
482.9610785233576
 20
199.7935327875691
 30
0.0
 40
6.4
  1
10
100
AcDbText
  0
TEXT
  5
D74D
330
36
100
AcDbEntity
  8
_0-0_型材図
 62
     3
100
AcDbText
 10
460.8289672442491
 20
379.8699959345888
 30
0.0
 40
11.6
  1
ドア用ＦＩＸ共通
 41
0.9655172413793099
100
AcDbText
  0
TEXT
  5
D74E
330
36
100
AcDbEntity
  8
_0-0_型材図
 62
     7
100
AcDbText
 10
458.9610817754241
 20
314.193540045803
 30
0.0
 40
6.4
  1
14
 50
90.0
100
AcDbText
  0
TEXT
  5
D74F
330
36
100
AcDbEntity
  8
_0-0_型材図
 62
     7
100
AcDbText
 10
458.9610817754241
 20
301.6935843493145
 30
0.0
 40
6.4
  1
11
 50
90.0
100
AcDbText
  0
TEXT
  5
D750
330
36
100
AcDbEntity
  8
_0-0_型材図
 62
     7
100
AcDbText
 10
458.9610817754241
 20
87.69346934871078
 30
0.0
 40
6.4
  1
15
 50
90.0
100
AcDbText
  0
TEXT
  5
D751
330
36
100
AcDbEntity
  8
_0-0_型材図
 62
     7
100
AcDbText
 10
458.9610817754241
 20
75.19351365222224
 30
0.0
 40
6.4
  1
10
 50
90.0
100
AcDbText
  0
TEXT
  5
D752
330
36
100
AcDbEntity
  8
_0-0_型材図
 62
     3
100
AcDbText
 10
213.0149808143205
 20
381.5444395956045
 30
0.0
 40
11.6
  1
ドア厚４０
 41
0.9655172413793099
100
AcDbText
  0
TEXT
  5
D753
330
36
100
AcDbEntity
  8
_0-0_型材図
 62
     7
100
AcDbText
 10
198.961219399097
 20
314.193540045803
 30
0.0
 40
6.4
  1
14
 50
90.0
100
AcDbText
  0
TEXT
  5
D754
330
36
100
AcDbEntity
  8
_0-0_型材図
 62
     7
100
AcDbText
 10
198.961219399097
 20
301.6935843493145
 30
0.0
 40
6.4
  1
11
 50
90.0
100
AcDbText
  0
TEXT
  5
D755
330
36
100
AcDbEntity
  8
_0-2_寸法
 62
     7
100
AcDbText
 10
492.9612670489368
 20
42.49353486135009
 30
0.0
 40
6.4
  1
30
100
AcDbText
  0
TEXT
  5
D756
330
36
100
AcDbEntity
  8
_0-2_寸法
 62
     7
100
AcDbText
 10
362.9610559002886
 20
42.49353486135009
 30
0.0
 40
6.4
  1
30
100
AcDbText
  0
TEXT
  5
D757
330
36
100
AcDbEntity
  8
_0-2_寸法
 62
     7
100
AcDbText
 10
252.9612218027978
 20
250.4935367466053
 30
0.0
 40
6.4
  1
10
100
AcDbText
  0
TEXT
  5
D758
330
36
100
AcDbEntity
  8
_0-2_寸法
 62
     7
100
AcDbText
 10
237.9612189749146
 20
357.4935942469072
 30
0.0
 40
6.4
  1
40
100
AcDbText
  0
TEXT
  5
D759
330
36
100
AcDbEntity
  8
_0-2_寸法
 62
     7
100
AcDbText
 10
237.9612189749146
 20
250.4935367466053
 30
0.0
 40
6.4
  1
20
100
AcDbText
  0
TEXT
  5
D75A
330
36
100
AcDbEntity
  8
_0-2_寸法
 62
     7
100
AcDbText
 10
237.9612189749146
 20
184.9937017064878
 30
0.0
 40
6.4
  1
40
100
AcDbText
  0
TEXT
  5
D75B
330
36
100
AcDbEntity
  8
_0-2_寸法
 62
     7
100
AcDbText
 10
222.9612161470304
 20
250.4935367466053
 30
0.0
 40
6.4
  1
10
100
AcDbText
  0
TEXT
  5
D75C
330
36
100
AcDbEntity
  8
_0-3_仕上
 62
     7
100
AcDbText
 10
376.1611327244618
 20
188.503566307417
 30
0.0
 40
6.4
  1
2
100
AcDbText
  0
TEXT
  5
D75D
330
36
100
AcDbEntity
  8
_0-3_仕上
 62
     7
100
AcDbText
 10
375.0111751427172
 20
195.7937373378224
 30
0.0
 40
6.4
  1
2.5
100
AcDbText
  0
TEXT
  5
D75E
330
36
100
AcDbEntity
  8
_0-3_仕上
 62
     7
100
AcDbText
 10
362.9613358607731
 20
195.7937373378224
 30
0.0
 40
6.4
  1
21
100
AcDbText
  0
TEXT
  5
D75F
330
36
100
AcDbEntity
  8
_0-3_仕上
 62
     7
100
AcDbText
 10
353.1612590365993
 20
188.3731047213889
 30
0.0
 40
6.4
  1
2
100
AcDbText
  0
TEXT
  5
D760
330
36
100
AcDbEntity
  8
_0-3_仕上
 62
     7
100
AcDbText
 10
347.5112166183444
 20
195.7937373378224
 30
0.0
 40
6.4
  1
2.5
100
AcDbText
  0
TEXT
  5
D761
330
36
100
AcDbEntity
  8
_0-3_仕上
 62
     3
100
AcDbText
 10
331.0614618901227
 20
380.7073577453386
 30
0.0
 40
11.6
  1
丸、三角ガラリ
 41
0.9655172413793099
100
AcDbText
  0
TEXT
  5
D762
330
36
100
AcDbEntity
  8
_0-4_建具
 62
     7
100
AcDbText
 10
330.4608989056124
 20
154.6936126281513
 30
0.0
 40
6.4
  1
52
 50
90.0
100
AcDbText
  0
TEXT
  5
D763
330
36
100
AcDbEntity
  8
_0-4_建具
 62
     7
100
AcDbText
 10
323.4610468981919
 20
317.1935966034773
 30
0.0
 40
6.4
  1
15
 50
90.0
100
AcDbText
  0
TEXT
  5
D764
330
36
100
AcDbEntity
  8
_0-4_建具
 62
     7
100
AcDbText
 10
323.4610468981919
 20
302.1935937755932
 30
0.0
 40
6.4
  1
15
 50
90.0
100
AcDbText
  0
TEXT
  5
D765
330
36
100
AcDbEntity
  8
_0-4_建具
 62
     7
100
AcDbText
 10
323.4610468981919
 20
89.19349762754768
 30
0.0
 40
6.4
  1
15
 50
90.0
100
AcDbText
  0
TEXT
  5
D766
330
36
100
AcDbEntity
  8
_0-4_建具
 62
     7
100
AcDbText
 10
323.4610468981919
 20
74.19349479966445
 30
0.0
 40
6.4
  1
15
 50
90.0
100
AcDbText
  0
TEXT
  5
D767
330
36
100
AcDbEntity
  8
_0-4_建具
 62
     7
100
AcDbText
 10
253.0116146901046
 20
66.9934368280485
 30
0.0
 40
6.4
  1
10
100
AcDbText
  0
TEXT
  5
D768
330
36
100
AcDbEntity
  8
_0-4_建具
 62
     7
100
AcDbText
 10
238.0116118622213
 20
66.9934368280485
 30
0.0
 40
6.4
  1
20
100
AcDbText
  0
TEXT
  5
D769
330
36
100
AcDbEntity
  8
_0-4_建具
 62
     7
100
AcDbText
 10
223.0116090343372
 20
66.9934368280485
 30
0.0
 40
6.4
  1
10
100
AcDbText
  0
TEXT
  5
D76A
330
36
100
AcDbEntity
  8
_0-4_建具
 62
     7
100
AcDbText
 10
199.2613370390581
 20
64.7435686074284
 30
0.0
 40
6.4
  1
52
 50
90.0
100
AcDbText
  0
TEXT
  5
D76B
330
36
100
AcDbEntity
  8
_0-4_建具
 62
     7
100
AcDbText
 10
198.7613276127795
 20
141.7436204519629
 30
0.0
 40
6.4
  1
14
 50
90.0
100
AcDbText
  0
TEXT
  5
D76C
330
36
100
AcDbEntity
  8
_0-4_建具
 62
     7
100
AcDbText
 10
198.7613276127795
 20
127.7434964963952
 30
0.0
 40
6.4
  1
14
 50
90.0
100
AcDbText
  0
TEXT
  5
D76D
330
36
100
AcDbEntity
  8
_0-5_その他
 62
     7
100
AcDbText
 10
526.7615069477365
 20
194.3788170464365
 30
0.0
 40
9.0
  1
Ｈ
100
AcDbText
  0
TEXT
  5
D76E
330
36
100
AcDbEntity
  8
_0-5_その他
 62
     7
100
AcDbText
 10
396.7614357793305
 20
194.3205852655485
 30
0.0
 40
9.0
  1
Ｈ
100
AcDbText
  0
TEXT
  5
D76F
330
36
100
AcDbEntity
  8
_0-0_型材図
 62
     7
100
AcDbText
 10
103.5455449111323
 20
245.6810160087928
 30
0.0
 40
9.0
  1
自由Ｒ
100
AcDbText
  0
TEXT
  5
D770
330
36
100
AcDbEntity
  8
_0-0_型材図
 62
     7
100
AcDbText
 10
103.5455449111323
 20
45.68088498351449
 30
0.0
 40
9.0
  1
自由Ｒ
100
AcDbText
  0
TEXT
  5
D771
330
36
100
AcDbEntity
  8
_0-5_その他
 62
     7
100
AcDbText
 10
416.3115366876462
 20
208.1168365286701
 30
0.0
 40
9.0
  1
ＭＨ
  7
TATEGAKI
100
AcDbText
  0
TEXT
  5
D772
330
36
100
AcDbEntity
  8
_0-5_その他
 62
     7
100
AcDbText
 10
546.3114678758102
 20
208.1750683095581
 30
0.0
 40
9.0
  1
ＭＨ
  7
TATEGAKI
100
AcDbText
  0
POINT
  5
D773
330
36
100
AcDbEntity
  8
_0-0_型材図
 62
     3
100
AcDbPoint
 10
459.7612088416645
 20
324.4938119939509
 30
0.0
  0
POINT
  5
D774
330
36
100
AcDbEntity
  8
_0-0_型材図
 62
     3
100
AcDbPoint
 10
459.7612088416645
 20
310.493828018625
 30
0.0
  0
POINT
  5
D775
330
36
100
AcDbEntity
  8
_0-0_型材図
 62
     3
100
AcDbPoint
 10
459.7612088416645
 20
299.4936206404883
 30
0.0
  0
POINT
  5
D776
330
36
100
AcDbEntity
  8
_0-0_型材図
 62
     3
100
AcDbPoint
 10
459.7612088416645
 20
98.49347076265328
 30
0.0
  0
POINT
  5
D777
330
36
100
AcDbEntity
  8
_0-0_型材図
 62
     3
100
AcDbPoint
 10
459.7612088416645
 20
83.49346793476909
 30
0.0
  0
POINT
  5
D778
330
36
100
AcDbEntity
  8
_0-0_型材図
 62
     3
100
AcDbPoint
 10
459.7612088416645
 20
73.49355936967526
 30
0.0
  0
POINT
  5
D779
330
36
100
AcDbEntity
  8
_0-0_型材図
 62
     3
100
AcDbPoint
 10
481.2610542506891
 20
198.9936856818128
 30
0.0
  0
POINT
  5
D77A
330
36
100
AcDbEntity
  8
_0-0_型材図
 62
     3
100
AcDbPoint
 10
491.2609628157842
 20
198.9936856818128
 30
0.0
  0
POINT
  5
D77B
330
36
100
AcDbEntity
  8
_0-0_型材図
 62
     3
100
AcDbPoint
 10
491.2609628157842
 20
198.9936856818128
 30
0.0
  0
POINT
  5
D77C
330
36
100
AcDbEntity
  8
_0-0_型材図
 62
     3
100
AcDbPoint
 10
501.261151341363
 20
198.9936856818128
 30
0.0
  0
POINT
  5
D77D
330
36
100
AcDbEntity
  8
_0-0_型材図
 62
     3
100
AcDbPoint
 10
501.261151341363
 20
198.9936856818128
 30
0.0
  0
POINT
  5
D77E
330
36
100
AcDbEntity
  8
_0-0_型材図
 62
     3
100
AcDbPoint
 10
511.2610599064569
 20
198.9936856818128
 30
0.0
  0
POINT
  5
D77F
330
36
100
AcDbEntity
  8
_0-0_型材図
 62
     3
100
AcDbPoint
 10
491.2609628157842
 20
198.9936856818128
 30
0.0
  0
POINT
  5
D780
330
36
100
AcDbEntity
  8
_0-0_型材図
 62
     3
100
AcDbPoint
 10
501.261151341363
 20
198.9936856818128
 30
0.0
  0
POINT
  5
D781
330
36
100
AcDbEntity
  8
_0-5_その他
 62
     3
100
AcDbPoint
 10
531.2611569971295
 20
299.4936206404883
 30
0.0
  0
POINT
  5
D782
330
36
100
AcDbEntity
  8
_0-5_その他
 62
     3
100
AcDbPoint
 10
546.2611598250132
 20
316.4936611734886
 30
0.0
  0
POINT
  5
D783
330
36
100
AcDbEntity
  8
_0-5_その他
 62
     3
100
AcDbPoint
 10
531.2611569971295
 20
98.49347076265328
 30
0.0
  0
POINT
  5
D784
330
36
100
AcDbEntity
  8
_0-5_その他
 62
     3
100
AcDbPoint
 10
546.2611598250132
 20
81.49371019013894
 30
0.0
  0
POINT
  5
D785
330
36
100
AcDbEntity
  8
_0-2_寸法
 62
     3
100
AcDbPoint
 10
481.2610542506891
 20
41.49351600879277
 30
0.0
  0
POINT
  5
D786
330
36
100
AcDbEntity
  8
_0-2_寸法
 62
     3
100
AcDbPoint
 10
511.2610599064569
 20
41.49351600879277
 30
0.0
  0
POINT
  5
D787
330
36
100
AcDbEntity
  8
_0-3_仕上
 62
     3
100
AcDbPoint
 10
376.7610438817828
 20
194.9936102715812
 30
0.0
  0
POINT
  5
D788
330
36
100
AcDbEntity
  8
_0-3_仕上
 62
     3
100
AcDbPoint
 10
378.7610815868983
 20
194.9936102715812
 30
0.0
  0
POINT
  5
D789
330
36
100
AcDbEntity
  8
_0-3_仕上
 62
     3
100
AcDbPoint
 10
353.7611701939204
 20
194.9936102715812
 30
0.0
  0
POINT
  5
D78A
330
36
100
AcDbEntity
  8
_0-3_仕上
 62
     3
100
AcDbPoint
 10
355.7612078990369
 20
194.9936102715812
 30
0.0
  0
POINT
  5
D78B
330
36
100
AcDbEntity
  8
_0-3_仕上
 62
     3
100
AcDbPoint
 10
378.7610815868983
 20
194.9936102715812
 30
0.0
  0
POINT
  5
D78C
330
36
100
AcDbEntity
  8
_0-3_仕上
 62
     3
100
AcDbPoint
 10
381.2611287182932
 20
194.9936102715812
 30
0.0
  0
POINT
  5
D78D
330
36
100
AcDbEntity
  8
_0-3_仕上
 62
     3
100
AcDbPoint
 10
351.2611230625262
 20
194.9936102715812
 30
0.0
  0
POINT
  5
D78E
330
36
100
AcDbEntity
  8
_0-3_仕上
 62
     3
100
AcDbPoint
 10
353.7611701939204
 20
194.9936102715812
 30
0.0
  0
POINT
  5
D78F
330
36
100
AcDbEntity
  8
_0-4_建具
 62
     3
100
AcDbPoint
 10
331.2610259718522
 20
183.9936828539295
 30
0.0
  0
POINT
  5
D790
330
36
100
AcDbEntity
  8
_0-4_建具
 62
     3
100
AcDbPoint
 10
331.2610259718522
 20
131.9935424023731
 30
0.0
  0
POINT
  5
D791
330
36
100
AcDbEntity
  8
_0-4_建具
 62
     3
100
AcDbPoint
 10
324.2608940039472
 20
69.99349338572324
 30
0.0
  0
POINT
  5
D792
330
36
100
AcDbEntity
  8
_0-4_建具
 62
     3
100
AcDbPoint
 10
324.2608940039472
 20
84.99349621360648
 30
0.0
  0
POINT
  5
D793
330
36
100
AcDbEntity
  8
_0-4_建具
 62
     3
100
AcDbPoint
 10
324.2608940039472
 20
99.99349904148971
 30
0.0
  0
POINT
  5
D794
330
36
100
AcDbEntity
  8
_0-4_建具
 62
     3
100
AcDbPoint
 10
324.2608940039472
 20
297.9935923616515
 30
0.0
  0
POINT
  5
D795
330
36
100
AcDbEntity
  8
_0-4_建具
 62
     3
100
AcDbPoint
 10
324.2608940039472
 20
312.9935951895348
 30
0.0
  0
POINT
  5
D796
330
36
100
AcDbEntity
  8
_0-4_建具
 62
     3
100
AcDbPoint
 10
324.2608940039472
 20
327.9935980174188
 30
0.0
  0
POINT
  5
D797
330
36
100
AcDbEntity
  8
_0-3_仕上
 62
     3
100
AcDbPoint
 10
351.2611230625262
 20
194.9936102715812
 30
0.0
  0
POINT
  5
D798
330
36
100
AcDbEntity
  8
_0-3_仕上
 62
     3
100
AcDbPoint
 10
381.2611287182932
 20
194.9936102715812
 30
0.0
  0
POINT
  5
D799
330
36
100
AcDbEntity
  8
_0-5_その他
 62
     3
100
AcDbPoint
 10
401.2612258089665
 20
297.9935923616515
 30
0.0
  0
POINT
  5
D79A
330
36
100
AcDbEntity
  8
_0-5_その他
 62
     3
100
AcDbPoint
 10
416.2612286368502
 20
314.9936328946508
 30
0.0
  0
POINT
  5
D79B
330
36
100
AcDbEntity
  8
_0-2_寸法
 62
     3
100
AcDbPoint
 10
351.2611230625262
 20
41.49351600879277
 30
0.0
  0
POINT
  5
D79C
330
36
100
AcDbEntity
  8
_0-2_寸法
 62
     3
100
AcDbPoint
 10
381.2611287182932
 20
41.49351600879277
 30
0.0
  0
POINT
  5
D79D
330
36
100
AcDbEntity
  8
_0-0_型材図
 62
     3
100
AcDbPoint
 10
199.7610665048519
 20
324.4938119939509
 30
0.0
  0
POINT
  5
D79E
330
36
100
AcDbEntity
  8
_0-0_型材図
 62
     3
100
AcDbPoint
 10
199.7610665048519
 20
310.493828018625
 30
0.0
  0
POINT
  5
D79F
330
36
100
AcDbEntity
  8
_0-0_型材図
 62
     3
100
AcDbPoint
 10
199.7610665048519
 20
299.4936206404883
 30
0.0
  0
POINT
  5
D7A0
330
36
100
AcDbEntity
  8
_0-2_寸法
 62
     3
100
AcDbPoint
 10
221.2611918743623
 20
249.493517894048
 30
0.0
  0
POINT
  5
D7A1
330
36
100
AcDbEntity
  8
_0-2_寸法
 62
     3
100
AcDbPoint
 10
231.2611004394566
 20
249.493517894048
 30
0.0
  0
POINT
  5
D7A2
330
36
100
AcDbEntity
  8
_0-2_寸法
 62
     3
100
AcDbPoint
 10
231.2611004394566
 20
249.493517894048
 30
0.0
  0
POINT
  5
D7A3
330
36
100
AcDbEntity
  8
_0-2_寸法
 62
     3
100
AcDbPoint
 10
251.2611975301297
 20
249.493517894048
 30
0.0
  0
POINT
  5
D7A4
330
36
100
AcDbEntity
  8
_0-2_寸法
 62
     3
100
AcDbPoint
 10
251.2611975301297
 20
249.493517894048
 30
0.0
  0
POINT
  5
D7A5
330
36
100
AcDbEntity
  8
_0-2_寸法
 62
     3
100
AcDbPoint
 10
261.261106095224
 20
249.493517894048
 30
0.0
  0
POINT
  5
D7A6
330
36
100
AcDbEntity
  8
_0-2_寸法
 62
     3
100
AcDbPoint
 10
221.2611918743623
 20
356.4935753943498
 30
0.0
  0
POINT
  5
D7A7
330
36
100
AcDbEntity
  8
_0-2_寸法
 62
     3
100
AcDbPoint
 10
261.261106095224
 20
356.4935753943498
 30
0.0
  0
POINT
  5
D7A8
330
36
100
AcDbEntity
  8
_0-4_建具
 62
     3
100
AcDbPoint
 10
199.7613464653373
 20
151.9936394930462
 30
0.0
  0
POINT
  5
D7A9
330
36
100
AcDbEntity
  8
_0-4_建具
 62
     3
100
AcDbPoint
 10
199.7613464653373
 20
137.9936555177207
 30
0.0
  0
POINT
  5
D7AA
330
36
100
AcDbEntity
  8
_0-4_建具
 62
     3
100
AcDbPoint
 10
199.7613464653373
 20
137.9936555177207
 30
0.0
  0
POINT
  5
D7AB
330
36
100
AcDbEntity
  8
_0-4_建具
 62
     3
100
AcDbPoint
 10
199.7613464653373
 20
123.9936715423948
 30
0.0
  0
POINT
  5
D7AC
330
36
100
AcDbEntity
  8
_0-4_建具
 62
     3
100
AcDbPoint
 10
200.2613558916159
 20
93.99366588662791
 30
0.0
  0
POINT
  5
D7AD
330
36
100
AcDbEntity
  8
_0-4_建具
 62
     3
100
AcDbPoint
 10
200.2613558916159
 20
41.99352543507098
 30
0.0
  0
POINT
  5
D7AE
330
36
100
AcDbEntity
  8
_0-4_建具
 62
     3
100
AcDbPoint
 10
221.2614718348477
 20
65.99369793597657
 30
0.0
  0
POINT
  5
D7AF
330
36
100
AcDbEntity
  8
_0-4_建具
 62
     3
100
AcDbPoint
 10
231.2613803999411
 20
65.99369793597657
 30
0.0
  0
POINT
  5
D7B0
330
36
100
AcDbEntity
  8
_0-4_建具
 62
     3
100
AcDbPoint
 10
231.2613803999411
 20
65.99369793597657
 30
0.0
  0
POINT
  5
D7B1
330
36
100
AcDbEntity
  8
_0-4_建具
 62
     3
100
AcDbPoint
 10
251.2614774906146
 20
65.99369793597657
 30
0.0
  0
POINT
  5
D7B2
330
36
100
AcDbEntity
  8
_0-4_建具
 62
     3
100
AcDbPoint
 10
251.2614774906146
 20
65.99369793597657
 30
0.0
  0
POINT
  5
D7B3
330
36
100
AcDbEntity
  8
_0-4_建具
 62
     3
100
AcDbPoint
 10
261.261386055709
 20
65.99369793597657
 30
0.0
  0
POINT
  5
D7B4
330
36
100
AcDbEntity
  8
_0-2_寸法
 62
     3
100
AcDbPoint
 10
221.2611918743623
 20
183.9936828539295
 30
0.0
  0
POINT
  5
D7B5
330
36
100
AcDbEntity
  8
_0-2_寸法
 62
     3
100
AcDbPoint
 10
261.261106095224
 20
183.9936828539295
 30
0.0
  0
POINT
  5
D7B6
330
36
100
AcDbEntity
  8
_0-5_その他
 62
     3
100
AcDbPoint
 10
401.2612258089665
 20
99.99349904148971
 30
0.0
  0
POINT
  5
D7B7
330
36
100
AcDbEntity
  8
_0-5_その他
 62
     3
100
AcDbPoint
 10
416.2612286368502
 20
83.49346793476909
 30
0.0
  0
INSERT
  5
D7B8
330
36
100
AcDbEntity
  8
0
  6
Continuous
100
AcDbBlockReference
  2
図枠
 10
5.939833635346531
 20
4.200279658514999
 30
0.0
 41
0.9800000000004727
 42
0.980000000000018
 43
0.98
  0
VIEWPORT
  5
D182
102
{ACAD_XDICTIONARY
360
D921
102
}
330
32
100
AcDbEntity
 67
     1
  8
0
  6
Continuous
100
AcDbViewport
 10
5.68563931543299
 20
3.902083231708196
 30
0.0
 40
18.5834017050557
 41
8.746133096049151
 68
     1
 69
     1
 12
5.68563931543299
 22
3.902083231708196
 13
0.0
 23
0.0
 14
10.0
 24
10.0
 15
10.0
 25
10.0
 16
0.0
 26
0.0
 36
1.0
 17
0.0
 27
0.0
 37
0.0
 42
50.0
 43
0.0
 44
0.0
 45
8.746133096049151
 50
0.0
 51
0.0
 72
   100
 90
   819232
  1

281
     0
 71
     1
 74
     0
110
0.0
120
0.0
130
0.0
111
1.0
121
0.0
131
0.0
112
0.0
122
1.0
132
0.0
 79
     0
146
0.0
1001
GENIUS_GENOBJ-N-SDF_13
1002
{
1000
OWNER
1000
GEN
1002
}
1001
GENIUS_GENODEF_13
1002
{
1000
HIER
1070
     0
1002
}
1002
{
1000
MANEDIT
1070
     0
1002
}
1002
{
1000
NOSEL
1070
     0
1002
}
1002
{
1000
BEHIND
1070
     0
1002
}
1002
{
1000
OTHER
1070
     0
1002
}
1002
{
1000
REACTOR
1002
}
1001
GENIUS_GENSCREG_15
1000
PF
1040
1.0
1000
DF
1040
1.0
1000
MIN
1011
-3.606061537094859
1021
-0.4709833163163797
1031
0.0
1000
MAX
1011
14.97734016796084
1021
8.275149779732771
1031
0.0
1000
FLAGS
1070
     2
  0
ENDSEC
  0
SECTION
  2
OBJECTS
  0
DICTIONARY
  5
C
330
0
100
AcDbDictionary
281
     1
  3
ACAD_2007HEADERVARS_RT
350
D914
  3
ACAD_COLOR
350
2F
  3
ACAD_GROUP
350
D
  3
ACAD_IMAGE_DICT
350
AA04
  3
ACAD_LAYOUT
350
2E
  3
ACAD_MATERIAL
350
10
  3
ACAD_MLINESTYLE
350
2B
  3
ACAD_PLOTSETTINGS
350
2D
  3
ACAD_PLOTSTYLENAME
350
E
  3
ACAD_TABLESTYLE
350
30
  3
ACAD_VISUALSTYLE
350
14
  3
AcDbVariableDictionary
350
ABFA
  3
AcmDictionary
350
A969
  3
AMG
350
A90F
  3
AMGSNAPSETTINGS
350
A9A9
  3
DWGPROPS
350
D913
  0
DICTIONARY
  5
ABBA
330
8
100
AcDbDictionary
280
     1
281
     1
  0
DICTIONARY
  5
A9F0
330
2
100
AcDbDictionary
280
     1
281
     1
  3
ACAD_LAYERFILTERS
360
AB65
  3
ACAD_LAYERSTATES
360
A9F1
  3
ACLYDICTIONARY
360
AB64
  0
DICTIONARY
  5
AE2D
330
36
100
AcDbDictionary
280
     1
281
     1
  3
ACAD_SORTENTS
360
AE2E
  0
DICTIONARY
  5
D921
330
D182
100
AcDbDictionary
280
     1
281
     1
  3
ACAD_XREC_ROUNDTRIP
360
D922
  0
DICTIONARY
  5
D914
102
{ACAD_REACTORS
330
C
102
}
330
C
100
AcDbDictionary
281
     1
  3
DIMARCSYM
350
D915
  0
DICTIONARY
  5
2F
102
{ACAD_REACTORS
330
C
102
}
330
C
100
AcDbDictionary
281
     1
  0
DICTIONARY
  5
D
102
{ACAD_REACTORS
330
C
102
}
330
C
100
AcDbDictionary
281
     1
  0
DICTIONARY
  5
AA04
102
{ACAD_REACTORS
330
C
102
}
330
C
100
AcDbDictionary
281
     1
  3
名称未設定 1
350
AA05
  3
鋳物(ﾚﾄﾗ)
350
AA06
  3
鋳物(ﾚﾄﾗ2)
350
AA07
  3
鋳物(ﾚﾄﾗ3)
350
AA08
  0
DICTIONARY
  5
2E
102
{ACAD_REACTORS
330
C
102
}
330
C
100
AcDbDictionary
281
     1
  3
Model
350
39
  3
レイアウト1
350
35
  0
DICTIONARY
  5
10
102
{ACAD_REACTORS
330
C
102
}
330
C
100
AcDbDictionary
281
     1
  3
ByBlock
350
12
  3
ByLayer
350
11
  3
Global
350
13
  0
DICTIONARY
  5
2B
102
{ACAD_REACTORS
330
C
102
}
330
C
100
AcDbDictionary
281
     1
  3
Standard
350
2C
  0
DICTIONARY
  5
2D
102
{ACAD_REACTORS
330
C
102
}
330
C
100
AcDbDictionary
281
     1
  0
ACDBDICTIONARYWDFLT
  5
E
102
{ACAD_REACTORS
330
C
102
}
330
C
100
AcDbDictionary
281
     1
  3
Normal
350
F
100
AcDbDictionaryWithDefault
340
F
  0
DICTIONARY
  5
30
102
{ACAD_REACTORS
330
C
102
}
330
C
100
AcDbDictionary
281
     1
  3
Standard
350
31
  0
DICTIONARY
  5
14
102
{ACAD_REACTORS
330
C
102
}
330
C
100
AcDbDictionary
281
     1
  3
2dWireframe
350
1A
  3
3D Hidden
350
1C
  3
3dWireframe
350
1B
  3
Basic
350
19
  3
Brighten
350
20
  3
ColorChange
350
24
  3
Conceptual
350
1D
  3
Dim
350
1F
  3
Facepattern
350
23
  3
Flat
350
15
  3
FlatWithEdges
350
16
  3
Gouraud
350
17
  3
GouraudWithEdges
350
18
  3
Linepattern
350
22
  3
Realistic
350
1E
  3
Thicken
350
21
  0
DICTIONARY
  5
ABFA
102
{ACAD_REACTORS
330
C
102
}
330
C
100
AcDbDictionary
281
     1
  3
CTABLESTYLE
350
ABFB
  3
DIMASSOC
350
ABFE
  3
INDEXCTL
350
ABFD
  3
SORTENTS
350
ABFC
  0
DICTIONARY
  5
A969
102
{ACAD_REACTORS
330
C
102
}
330
C
100
AcDbDictionary
281
     1
  3
AcmStdDictionary
350
A974
  3
AMDTSECTSYM_ARROWCOLOR
350
A994
  0
DICTIONARY
  5
A90F
102
{ACAD_REACTORS
330
C
102
}
330
C
100
AcDbDictionary
281
     1
  0
DICTIONARY
  5
A9A9
102
{ACAD_REACTORS
330
C
102
}
330
C
100
AcDbDictionary
281
     1
  0
XRECORD
  5
D913
102
{ACAD_REACTORS
330
C
102
}
330
C
100
AcDbXrecord
280
     1
  1
DWGPROPS COOKIE
  2

  3

  4

  6

  7

  8
坪井
  9

300
=
301
=
302
=
303
=
304
=
305
=
306
=
307
=
308
=
309
=
 40
0.2461402546296296
 41
2454050.791736829
 42
2454179.574058519
  1

 90
        0
  0
DICTIONARY
  5
AB65
102
{ACAD_REACTORS
330
A9F0
102
}
330
A9F0
100
AcDbDictionary
281
     1
  0
DICTIONARY
  5
A9F1
102
{ACAD_REACTORS
330
A9F0
102
}
330
A9F0
100
AcDbDictionary
281
     1
  0
DICTIONARY
  5
AB64
102
{ACAD_REACTORS
330
A9F0
102
}
330
A9F0
100
AcDbDictionary
281
     1
1001
ACAD
1000
<All
  0
SORTENTSTABLE
  5
AE2E
102
{ACAD_REACTORS
330
AE2D
102
}
330
AE2D
100
AcDbSortentsTable
330
36
  0
XRECORD
  5
D922
102
{ACAD_REACTORS
330
D921
102
}
330
D921
100
AcDbXrecord
280
     1
102
SHADEPLOT
 70
     0
  0
XRECORD
  5
D915
102
{ACAD_REACTORS
330
D914
102
}
330
D914
100
AcDbXrecord
280
     1
 70
     1
  0
IMAGEDEF
  5
AA05
102
{ACAD_REACTORS
330
AA04
102
}
330
AA04
100
AcDbRasterImageDef
 90
        0
  1
C:\Documents and Settings\坪井\My Documents\My Pictures\名称未設定 1.jpg
 10
1065.0
 20
2506.0
 11
0.0009389671361502
 21
0.0009389671361502
280
     1
281
     0
  0
IMAGEDEF
  5
AA06
102
{ACAD_REACTORS
330
AA04
102
}
330
AA04
100
AcDbRasterImageDef
 90
        0
  1
C:\Documents and Settings\坪井\My Documents\My Pictures\鋳物(ﾚﾄﾗ).jpg
 10
1122.0
 20
2496.0
 11
0.000891265597148
 21
0.000891265597148
280
     1
281
     0
  0
IMAGEDEF
  5
AA07
102
{ACAD_REACTORS
330
AA04
102
}
330
AA04
100
AcDbRasterImageDef
 90
        0
  1
C:\Documents and Settings\坪井\My Documents\My Pictures\鋳物(ﾚﾄﾗ2).jpg
 10
1194.0
 20
2523.0
 11
0.0008375209380235
 21
0.0008375209380235
280
     1
281
     0
  0
IMAGEDEF
  5
AA08
102
{ACAD_REACTORS
330
AA04
102
}
330
AA04
100
AcDbRasterImageDef
 90
        0
  1
C:\Documents and Settings\坪井\My Documents\My Pictures\鋳物(ﾚﾄﾗ3).jpg
 10
1753.0
 20
2480.0
 11
0.0005704506560183
 21
0.0005704506560183
280
     1
281
     0
  0
LAYOUT
  5
39
102
{ACAD_XDICTIONARY
360
D91F
102
}
102
{ACAD_REACTORS
330
2E
102
}
330
2E
100
AcDbPlotSettings
  1

  2
RICOH imagio Neo C455 RPCS
  4

  6

 40
0.0
 41
0.0
 42
0.0
 43
0.0
 44
0.0
 45
0.0
 46
0.0
 47
0.0
 48
0.0
 49
0.0
140
0.0
141
0.0
142
1.0
143
1.0
 70
  1712
 72
     0
 73
     0
 74
     0
  7

 75
     0
147
1.0
148
0.0
149
0.0
100
AcDbLayout
  1
Model
 70
     1
 71
     0
 10
0.0
 20
0.0
 11
12.0
 21
9.0
 12
0.0
 22
0.0
 32
0.0
 14
0.0
 24
0.0
 34
0.0
 15
0.0
 25
0.0
 35
0.0
146
0.0
 13
0.0
 23
0.0
 33
0.0
 16
1.0
 26
0.0
 36
0.0
 17
0.0
 27
1.0
 37
0.0
 76
     0
330
36
331
6F
  0
LAYOUT
  5
35
102
{ACAD_XDICTIONARY
360
D192
102
}
102
{ACAD_REACTORS
330
2E
102
}
330
2E
100
AcDbPlotSettings
  1

  2
RICOH imagio Neo C455 RPCS
  4
A4
  6

 40
5.873749732971191
 41
5.873747825622557
 42
5.873748779296875
 43
5.873748779296875
 44
209.9733276367186
 45
296.9259948730469
 46
0.0
 47
0.0
 48
0.0
 49
0.0
140
0.0
141
0.0
142
1.0
143
1.0
 70
   688
 72
     0
 73
     1
 74
     5
  7

 75
    16
147
1.0
148
0.0
149
0.0
100
AcDbLayout
  1
レイアウト1
 70
     1
 71
     1
 10
-0.2312499519408218
 20
-0.2312499894870548
 11
11.45874984621063
 21
8.035416452903447
 12
0.0
 22
0.0
 32
0.0
 14
1.000000000000000E+20
 24
1.000000000000000E+20
 34
1.000000000000000E+20
 15
-1.000000000000000E+20
 25
-1.000000000000000E+20
 35
-1.000000000000000E+20
146
0.0
 13
0.0
 23
0.0
 33
0.0
 16
1.0
 26
0.0
 36
0.0
 17
0.0
 27
1.0
 37
0.0
 76
     0
330
32
331
D182
1001
ACAD_PSEXT
1000
RICOH imagio Neo C455 RPCS
1000
RICOH imagio Neo C455 RPCS
1000
192.168.1.199@imagio_Neo_C455@
1000
RPCS Driver (Windows 2000/XP/Server 2003)
1070
     0
  0
MATERIAL
  5
12
102
{ACAD_XDICTIONARY
360
D918
102
}
102
{ACAD_REACTORS
330
10
102
}
330
10
100
AcDbMaterial
  1
ByBlock
  0
MATERIAL
  5
11
102
{ACAD_XDICTIONARY
360
D916
102
}
102
{ACAD_REACTORS
330
10
102
}
330
10
100
AcDbMaterial
  1
ByLayer
  0
MATERIAL
  5
13
102
{ACAD_XDICTIONARY
360
D91A
102
}
102
{ACAD_REACTORS
330
10
102
}
330
10
100
AcDbMaterial
  1
Global
  0
MLINESTYLE
  5
2C
102
{ACAD_REACTORS
330
2B
102
}
330
2B
100
AcDbMlineStyle
  2
STANDARD
 70
     0
  3

 62
   256
 51
90.0
 52
90.0
 71
     2
 49
0.5
 62
   256
  6
BYLAYER
 49
-0.5
 62
   256
  6
BYLAYER
  0
ACDBPLACEHOLDER
  5
F
102
{ACAD_REACTORS
330
E
102
}
330
E
  0
TABLESTYLE
  5
31
102
{ACAD_XDICTIONARY
360
D91C
102
}
102
{ACAD_REACTORS
330
30
102
}
330
30
100
AcDbTableStyle
  3
Standard
 70
     0
 71
     0
 40
0.06
 41
0.06
280
     0
281
     0
  7
STANDARD
140
0.18
170
     2
 62
     0
 63
     7
283
     0
274
    -2
284
     1
 64
     0
275
    -2
285
     1
 65
     0
276
    -2
286
     1
 66
     0
277
    -2
287
     1
 67
     0
278
    -2
288
     1
 68
     0
279
    -2
289
     1
 69
     0
  7
STANDARD
140
0.25
170
     5
 62
     0
 63
     7
283
     0
274
    -2
284
     1
 64
     0
275
    -2
285
     1
 65
     0
276
    -2
286
     1
 66
     0
277
    -2
287
     1
 67
     0
278
    -2
288
     1
 68
     0
279
    -2
289
     1
 69
     0
  7
STANDARD
140
0.18
170
     5
 62
     0
 63
     7
283
     0
274
    -2
284
     1
 64
     0
275
    -2
285
     1
 65
     0
276
    -2
286
     1
 66
     0
277
    -2
287
     1
 67
     0
278
    -2
288
     1
 68
     0
279
    -2
289
     1
 69
     0
  0
VISUALSTYLE
  5
1A
102
{ACAD_REACTORS
330
14
102
}
330
14
100
AcDbVisualStyle
  2
2dWireframe
 70
     4
 71
     0
 72
     2
 73
     0
 90
        0
 40
-0.6
 41
-30.0
 62
     5
 63
     7
 74
     1
 91
        4
 64
     7
 65
   257
 75
     1
175
     1
 42
1.0
 92
        0
 66
   257
 43
1.0
 76
     1
 77
     6
 78
     2
 67
     7
 79
     5
170
     0
171
     0
290
     0
174
     0
 93
        1
 44
0.0
173
     0
291
     0
 45
0.0
1001
ACAD
1000
AcDbSavedByObjectVersion
1070
     0
1000
AcDbSavedByObjectVersion
1070
     0
1000
AcDbSavedByObjectVersion
1070
     0
  0
VISUALSTYLE
  5
1C
102
{ACAD_REACTORS
330
14
102
}
330
14
100
AcDbVisualStyle
  2
3D Hidden
 70
     6
 71
     1
 72
     2
 73
     2
 90
        0
 40
-0.6
 41
-30.0
 62
     5
 63
     7
 74
     2
 91
        2
 64
     7
 65
   257
 75
     2
175
     1
 42
40.0
 92
        0
 66
   257
 43
1.0
 76
     1
 77
     6
 78
     2
 67
     7
 79
     3
170
     0
171
     0
290
     0
174
     0
 93
        1
 44
0.0
173
     0
291
     0
 45
0.0
1001
ACAD
1000
AcDbSavedByObjectVersion
1070
     0
1000
AcDbSavedByObjectVersion
1070
     0
1000
AcDbSavedByObjectVersion
1070
     0
  0
VISUALSTYLE
  5
1B
102
{ACAD_REACTORS
330
14
102
}
330
14
100
AcDbVisualStyle
  2
3dWireframe
 70
     5
 71
     0
 72
     2
 73
     0
 90
        0
 40
-0.6
 41
-30.0
 62
     5
 63
     7
 74
     1
 91
        4
 64
     7
 65
   257
 75
     1
175
     1
 42
1.0
 92
        0
 66
   257
 43
1.0
 76
     1
 77
     6
 78
     2
 67
     7
 79
     5
170
     0
171
     0
290
     0
174
     0
 93
        1
 44
0.0
173
     0
291
     0
 45
0.0
1001
ACAD
1000
AcDbSavedByObjectVersion
1070
     0
1000
AcDbSavedByObjectVersion
1070
     0
1000
AcDbSavedByObjectVersion
1070
     0
  0
VISUALSTYLE
  5
19
102
{ACAD_REACTORS
330
14
102
}
330
14
100
AcDbVisualStyle
  2
Basic
 70
     7
 71
     1
 72
     0
 73
     1
 90
        0
 40
-0.6
 41
-30.0
 62
     5
 63
     7
 74
     0
 91
        4
 64
     7
 65
   257
 75
     1
175
     1
 42
1.0
 92
        8
 66
     7
 43
1.0
 76
     1
 77
     6
 78
     2
 67
     7
 79
     5
170
     0
171
     0
290
     0
174
     0
 93
        1
 44
0.0
173
     0
291
     1
 45
0.0
1001
ACAD
1000
AcDbSavedByObjectVersion
1070
     0
1000
AcDbSavedByObjectVersion
1070
     0
1000
AcDbSavedByObjectVersion
1070
     0
  0
VISUALSTYLE
  5
20
102
{ACAD_REACTORS
330
14
102
}
330
14
100
AcDbVisualStyle
  2
Brighten
 70
    12
 71
     2
 72
     2
 73
     0
 90
        0
 40
-0.6
 41
-30.0
 62
     5
 63
     7
 74
     1
 91
        4
 64
     7
 65
   257
 75
     1
175
     1
 42
1.0
 92
        8
 66
     7
 43
1.0
 76
     1
 77
     6
 78
     2
 67
     7
 79
     5
170
     0
171
     0
290
     0
174
     0
 93
        1
 44
50.0
173
     0
291
     1
 45
0.0
1001
ACAD
1000
AcDbSavedByObjectVersion
1070
     0
1000
AcDbSavedByObjectVersion
1070
     0
1000
AcDbSavedByObjectVersion
1070
     0
  0
VISUALSTYLE
  5
24
102
{ACAD_REACTORS
330
14
102
}
330
14
100
AcDbVisualStyle
  2
ColorChange
 70
    16
 71
     2
 72
     2
 73
     3
 90
        0
 40
-0.6
 41
-30.0
 62
     5
 63
     8
 74
     1
 91
        4
 64
     7
 65
   257
 75
     1
175
     1
 42
1.0
 92
        8
 66
     8
 43
1.0
 76
     1
 77
     6
 78
     2
 67
     7
 79
     5
170
     0
171
     0
290
     0
174
     0
 93
        1
 44
0.0
173
     0
291
     1
 45
0.0
1001
ACAD
1000
AcDbSavedByObjectVersion
1070
     0
1000
AcDbSavedByObjectVersion
1070
     0
1000
AcDbSavedByObjectVersion
1070
     0
  0
VISUALSTYLE
  5
1D
102
{ACAD_REACTORS
330
14
102
}
330
14
100
AcDbVisualStyle
  2
Conceptual
 70
     9
 71
     3
 72
     2
 73
     0
 90
        0
 40
-0.6
 41
-30.0
 62
     5
 63
     7
 74
     2
 91
        2
 64
     7
 65
   257
 75
     1
175
     1
 42
40.0
 92
        8
 66
     7
 43
1.0
 76
     1
 77
     6
 78
     2
 67
     7
 79
     3
170
     0
171
     0
290
     0
174
     0
 93
        1
 44
0.0
173
     0
291
     0
 45
0.0
1001
ACAD
1000
AcDbSavedByObjectVersion
1070
     0
1000
AcDbSavedByObjectVersion
1070
     0
1000
AcDbSavedByObjectVersion
1070
     0
  0
VISUALSTYLE
  5
1F
102
{ACAD_REACTORS
330
14
102
}
330
14
100
AcDbVisualStyle
  2
Dim
 70
    11
 71
     2
 72
     2
 73
     0
 90
        0
 40
-0.6
 41
-30.0
 62
     5
 63
     7
 74
     1
 91
        4
 64
     7
 65
   257
 75
     1
175
     1
 42
1.0
 92
        8
 66
     7
 43
1.0
 76
     1
 77
     6
 78
     2
 67
     7
 79
     5
170
     0
171
     0
290
     0
174
     0
 93
        1
 44
-50.0
173
     0
291
     1
 45
0.0
1001
ACAD
1000
AcDbSavedByObjectVersion
1070
     0
1000
AcDbSavedByObjectVersion
1070
     0
1000
AcDbSavedByObjectVersion
1070
     0
  0
VISUALSTYLE
  5
23
102
{ACAD_REACTORS
330
14
102
}
330
14
100
AcDbVisualStyle
  2
Facepattern
 70
    15
 71
     2
 72
     2
 73
     0
 90
        0
 40
-0.6
 41
-30.0
 62
     5
 63
     7
 74
     1
 91
        4
 64
     7
 65
   257
 75
     1
175
     1
 42
1.0
 92
        8
 66
     7
 43
1.0
 76
     1
 77
     6
 78
     2
 67
     7
 79
     5
170
     0
171
     0
290
     0
174
     0
 93
        1
 44
0.0
173
     0
291
     1
 45
0.0
1001
ACAD
1000
AcDbSavedByObjectVersion
1070
     0
1000
AcDbSavedByObjectVersion
1070
     0
1000
AcDbSavedByObjectVersion
1070
     0
  0
VISUALSTYLE
  5
15
102
{ACAD_REACTORS
330
14
102
}
330
14
100
AcDbVisualStyle
  2
Flat
 70
     0
 71
     2
 72
     1
 73
     1
 90
        2
 40
-0.6
 41
30.0
 62
     5
 63
     7
 74
     0
 91
        4
 64
     7
 65
   257
 75
     1
175
     1
 42
1.0
 92
        8
 66
     7
 43
1.0
 76
     1
 77
     6
 78
     2
 67
     7
 79
     5
170
     0
171
     0
290
     0
174
     0
 93
       13
 44
0.0
173
     0
291
     1
 45
0.0
1001
ACAD
1000
AcDbSavedByObjectVersion
1070
     0
1000
AcDbSavedByObjectVersion
1070
     0
1000
AcDbSavedByObjectVersion
1070
     0
  0
VISUALSTYLE
  5
16
102
{ACAD_REACTORS
330
14
102
}
330
14
100
AcDbVisualStyle
  2
FlatWithEdges
 70
     1
 71
     2
 72
     1
 73
     1
 90
        2
 40
-0.6
 41
30.0
 62
     5
 63
     7
 74
     1
 91
        4
 64
     7
 65
   257
 75
     1
175
     1
 42
1.0
 92
        0
 66
   257
 43
1.0
 76
     1
 77
     6
 78
     2
 67
     7
 79
     5
170
     0
171
     0
290
     0
174
     0
 93
       13
 44
0.0
173
     0
291
     1
 45
0.0
1001
ACAD
1000
AcDbSavedByObjectVersion
1070
     0
1000
AcDbSavedByObjectVersion
1070
     0
1000
AcDbSavedByObjectVersion
1070
     0
  0
VISUALSTYLE
  5
17
102
{ACAD_REACTORS
330
14
102
}
330
14
100
AcDbVisualStyle
  2
Gouraud
 70
     2
 71
     2
 72
     2
 73
     1
 90
        2
 40
-0.6
 41
30.0
 62
     5
 63
     7
 74
     0
 91
        4
 64
     7
 65
   257
 75
     1
175
     1
 42
1.0
 92
        0
 66
     7
 43
1.0
 76
     1
 77
     6
 78
     2
 67
     7
 79
     5
170
     0
171
     0
290
     0
174
     0
 93
       13
 44
0.0
173
     0
291
     1
 45
0.0
1001
ACAD
1000
AcDbSavedByObjectVersion
1070
     0
1000
AcDbSavedByObjectVersion
1070
     0
1000
AcDbSavedByObjectVersion
1070
     0
  0
VISUALSTYLE
  5
18
102
{ACAD_REACTORS
330
14
102
}
330
14
100
AcDbVisualStyle
  2
GouraudWithEdges
 70
     3
 71
     2
 72
     2
 73
     1
 90
        2
 40
-0.6
 41
30.0
 62
     5
 63
     7
 74
     1
 91
        4
 64
     7
 65
   257
 75
     1
175
     1
 42
1.0
 92
        0
 66
   257
 43
1.0
 76
     1
 77
     6
 78
     2
 67
     7
 79
     5
170
     0
171
     0
290
     0
174
     0
 93
       13
 44
0.0
173
     0
291
     1
 45
0.0
1001
ACAD
1000
AcDbSavedByObjectVersion
1070
     0
1000
AcDbSavedByObjectVersion
1070
     0
1000
AcDbSavedByObjectVersion
1070
     0
  0
VISUALSTYLE
  5
22
102
{ACAD_REACTORS
330
14
102
}
330
14
100
AcDbVisualStyle
  2
Linepattern
 70
    14
 71
     2
 72
     2
 73
     0
 90
        0
 40
-0.6
 41
-30.0
 62
     5
 63
     7
 74
     1
 91
        4
 64
     7
 65
   257
 75
     7
175
     7
 42
1.0
 92
        8
 66
     7
 43
1.0
 76
     1
 77
     6
 78
     2
 67
     7
 79
     5
170
     0
171
     0
290
     0
174
     0
 93
        1
 44
0.0
173
     0
291
     1
 45
0.0
1001
ACAD
1000
AcDbSavedByObjectVersion
1070
     0
1000
AcDbSavedByObjectVersion
1070
     0
1000
AcDbSavedByObjectVersion
1070
     0
  0
VISUALSTYLE
  5
1E
102
{ACAD_REACTORS
330
14
102
}
330
14
100
AcDbVisualStyle
  2
Realistic
 70
     8
 71
     2
 72
     2
 73
     0
 90
        0
 40
-0.6
 41
-30.0
 62
     5
 63
     7
 74
     1
 91
        0
 64
     7
 65
   257
 75
     1
175
     1
 42
1.0
 92
        8
 66
     8
 43
1.0
 76
     1
 77
     6
 78
     2
 67
     7
 79
     5
170
     0
171
     0
290
     0
174
     0
 93
       13
 44
0.0
173
     0
291
     0
 45
0.0
1001
ACAD
1000
AcDbSavedByObjectVersion
1070
     0
1000
AcDbSavedByObjectVersion
1070
     0
1000
AcDbSavedByObjectVersion
1070
     0
  0
VISUALSTYLE
  5
21
102
{ACAD_REACTORS
330
14
102
}
330
14
100
AcDbVisualStyle
  2
Thicken
 70
    13
 71
     2
 72
     2
 73
     0
 90
        0
 40
-0.6
 41
-30.0
 62
     5
 63
     7
 74
     1
 91
        4
 64
     7
 65
   257
 75
     1
175
     1
 42
1.0
 92
       12
 66
     7
 43
1.0
 76
     1
 77
     6
 78
     2
 67
     7
 79
     5
170
     0
171
     0
290
     0
174
     0
 93
        1
 44
0.0
173
     0
291
     1
 45
0.0
1001
ACAD
1000
AcDbSavedByObjectVersion
1070
     0
1000
AcDbSavedByObjectVersion
1070
     0
1000
AcDbSavedByObjectVersion
1070
     0
  0
DICTIONARYVAR
  5
ABFB
102
{ACAD_REACTORS
330
ABFA
102
}
330
ABFA
100
DictionaryVariables
280
     0
  1
STANDARD
  0
DICTIONARYVAR
  5
ABFE
102
{ACAD_REACTORS
330
ABFA
102
}
330
ABFA
100
DictionaryVariables
280
     0
  1
1
  0
DICTIONARYVAR
  5
ABFD
102
{ACAD_REACTORS
330
ABFA
102
}
330
ABFA
100
DictionaryVariables
280
     0
  1
0
  0
DICTIONARYVAR
  5
ABFC
102
{ACAD_REACTORS
330
ABFA
102
}
330
ABFA
100
DictionaryVariables
280
     0
  1
127
  0
DICTIONARY
  5
A974
102
{ACAD_REACTORS
330
A969
102
}
330
A969
100
AcDbDictionary
281
     1
  0
XRECORD
  5
A994
102
{ACAD_REACTORS
330
A969
102
}
330
A969
100
AcDbXrecord
280
     1
 90
-1023410169
  0
DICTIONARY
  5
D91F
330
39
100
AcDbDictionary
280
     1
281
     1
  3
ACAD_XREC_ROUNDTRIP
360
D920
  0
DICTIONARY
  5
D192
330
35
100
AcDbDictionary
280
     1
281
     1
  3
ACAD_XREC_ROUNDTRIP
360
D91E
  3
ADSK_XREC_LAYOUTTHUMBNAIL
360
D193
  0
DICTIONARY
  5
D918
330
12
100
AcDbDictionary
280
     1
281
     1
  3
ACAD_XREC_ROUNDTRIP
360
D919
  0
DICTIONARY
  5
D916
330
11
100
AcDbDictionary
280
     1
281
     1
  3
ACAD_XREC_ROUNDTRIP
360
D917
  0
DICTIONARY
  5
D91A
330
13
100
AcDbDictionary
280
     1
281
     1
  3
ACAD_XREC_ROUNDTRIP
360
D91B
  0
DICTIONARY
  5
D91C
330
31
100
AcDbDictionary
280
     1
281
     1
  3
ACAD_XREC_ROUNDTRIP
360
D91D
  0
XRECORD
  5
D920
102
{ACAD_REACTORS
330
D91F
102
}
330
D91F
100
AcDbXrecord
280
     1
102
SHADEPLOT
 70
     0
102
SHADEPLOTRESLEVEL
 70
     2
102
SHADEPLOTCUSTOMDPI
 70
   300
  0
XRECORD
  5
D91E
102
{ACAD_REACTORS
330
D192
102
}
330
D192
100
AcDbXrecord
280
     1
102
SHADEPLOT
 70
     0
102
SHADEPLOTRESLEVEL
 70
     2
102
SHADEPLOTCUSTOMDPI
 70
   300
  0
XRECORD
  5
D193
102
{ACAD_REACTORS
330
D192
102
}
330
D192
100
AcDbXrecord
280
     1
310
28000000B40000007F00000001000800000000004C59000000000000000000000001000000000000FFFFFF0000000000FFFFFF000000000000000000000000000000000000000000000000000000000000000000330000006600000099000000CC000000FF00000000330000333300006633000099330000CC330000FF3300
310
0000660000336600006666000099660000CC660000FF66000000990000339900006699000099990000CC990000FF99000000CC000033CC000066CC000099CC0000CCCC0000FFCC000000FF000033FF000066FF000099FF0000CCFF0000FFFF000000003300330033006600330099003300CC003300FF003300003333003333
310
33006633330099333300CC333300FF33330000663300336633006666330099663300CC663300FF66330000993300339933006699330099993300CC993300FF99330000CC330033CC330066CC330099CC3300CCCC3300FFCC330000FF330033FF330066FF330099FF3300CCFF3300FFFF330000006600330066006600660099
310
006600CC006600FF00660000336600333366006633660099336600CC336600FF33660000666600336666006666660099666600CC666600FF66660000996600339966006699660099996600CC996600FF99660000CC660033CC660066CC660099CC6600CCCC6600FFCC660000FF660033FF660066FF660099FF6600CCFF6600
310
FFFF660000009900330099006600990099009900CC009900FF00990000339900333399006633990099339900CC339900FF33990000669900336699006666990099669900CC669900FF66990000999900339999006699990099999900CC999900FF99990000CC990033CC990066CC990099CC9900CCCC9900FFCC990000FF99
310
0033FF990066FF990099FF9900CCFF9900FFFF99000000CC003300CC006600CC009900CC00CC00CC00FF00CC000033CC003333CC006633CC009933CC00CC33CC00FF33CC000066CC003366CC006666CC009966CC00CC66CC00FF66CC000099CC003399CC006699CC009999CC00CC99CC00FF99CC0000CCCC0033CCCC0066CC
310
CC0099CCCC00CCCCCC00FFCCCC0000FFCC0033FFCC0066FFCC0099FFCC00CCFFCC00FFFFCC000000FF003300FF006600FF009900FF00CC00FF00FF00FF000033FF003333FF006633FF009933FF00CC33FF00FF33FF000066FF003366FF006666FF009966FF00CC66FF00FF66FF000099FF003399FF006699FF009999FF00CC
310
99FF00FF99FF0000CCFF0033CCFF0066CCFF0099CCFF00CCCCFF00FFCCFF0000FFFF0033FFFF0066FFFF0099FFFF00CCFFFF00FFFFFF00000000000D0D0D001A1A1A00282828003535350043434300505050005D5D5D006B6B6B00787878008686860093939300A1A1A100AEAEAE00BBBBBB00C9C9C900D6D6D600E4E4E400
310
F1F1F100FFFFFF0000000000000000000000000000000000000000000000000000000000000000000000000000000000E2E2E2E2E2E2E2E2E2E2E2E2E2E2E2E2E2E2E2E2E2E2E2E2E2E2E2E2E2E2E2E2E2E2E2E2E2E2E2E2E2E2E2E2E2E2E2E2E2E2E2E2E2E2E2E2E2E2E2E2E2E2E2E2E2E2E2E2E2E2E2E2E2E2E2E2E2E2E2
310
E2E2E2E2E2E2E2E2E2E2E2E2E2E2E2E2E2E2E2E2E2E2E2E2E2E2E2E2E2E2E2E2E2E2E2E2E2E2E2E2E2E2E2E2E2E2E2E2E2E2E2E2E2E2E2E2E2E2E2E2E2E2E2E2E2E2E2E2E2E2E2E2E2E2E2E2E2E2E2E2E2E2E2E2E2E2E2E2E2E2E2E2E2E2E2E2E2E2E2E2E2F5F5F5F5F5F5F5F5F5F5F5F5F5F5F5F5F5F5F5F5F5F5F5F5F5F5
310
F5F5F5F5F5F5F5F5F5F5F5F5F5F5F5F5F5F5F5F5F5F5F5F5F5F5F5F5F5F5F5F5F5F5F5F5F5F5F5F5F5F5F5F5F5F5F5F5F5F5F5F5F5F5F5F5F5F5F5F5F5F5F5F5F5F5F5F5F5F5F5F5F5F5F5F5F5F5F5F5F5F5F5F5F5F5F5F5F5F5F5F5F5F5F5F5F5F5F5F5F5F5F5F5F5F5F5F5F5F5F5F5F5F5F5F5F5F5F5F5F5F5F5F5F5F5F5
310
F5F5F5F5F5F5F5F5F5F5F5F5F5F5F5F5F5F5F5F5F5F5F5F5F5E2E2F5F5F5F5F5F5F5F5F5F5F5F5F5F5F5F5F5F5F5F5F5F5F5F5F5F5F5F5F5F5F5F5F5F5F5F5F5F5F5F5F5F5F5F5F5F5F5F5F5F5F5F5F5F5F5F5F5F5F5F5F5F5F5F5F5F5F5F5F5F5F5F5F5F5F5F5F5F5F5F5F5F5F5F5F5F5F5F5F5F5F5F5F5F5F5F5F5F5F5F5
310
F5F5F5F5F5F5F5F5F5F5F5F5F5F5F5F5F5F5F5F5F5F5F5F5F5F5F5F5F5F5F5F5F5F5F5F5F5F5F5F5F5F5F5F5F5F5F5F5F5F5F5F5F5F5F5F5F5F5F5F5F5F5F5F5F5F5F5F5F5F5F5F5F5F5F5F5F5F5E2E2F5F5F5F5F5F5F5F5F5F5F5F5F5F5F5F5F5F5F5F5F5F5F5F5F5F5F5F5F5F5F5F5F5F5F5F5F5F5F5F5F5F5F5F5F5F5F5
310
F5F5F5F5F5F5F5F5F5F5F5F5F5F5F5F5F5F5F5F5F5F5F5F5F5F5F5F5F5F5F5F5F5F5F5F5F5F5F5F5F5F5F5F5F5F5F5F5F5F5F5F5F5F5F5F5F5F5F5F5F5F5F5F5F5F5F5F5F5F5F5F5F5F5F5F5F5F5F5F5F5F5F5F5F5F5F5F5F5F5F5F5F5F5F5F5F5F5F5F5F5F5F5F5F5F5F5F5F5F5F5F5F5F5F5F5F5F5F5F5F5F5F5F5F5F5F5
310
F5F5F5F5E2E2F5F5F5E2E2E2E2E2E2E2E2F5F5F5F5F5F5F5F5F5E2E2E2E2E2E2E2E2E2E2E2E2E2E2E2E2F5F5F5F5F5F5F5F5F5E2E2E2E2E2E2E2E2E2E2E2E2E2E2E2F5F5F5F5F5F5F5F5F5E2E2E2E2E2E2E2E2E2E2E2E2E2E2E2E2F5F5F5F5F5F5F5F5E2E2E2E2E2E2E2E2E2E2E2E2E2E2E2E2F5F5F5F5F5F5F5F5F5E2E2E2
310
E2E2E2E2E2E2E2E2E2E2E2E2F5F5F5F5F5F5F5F5F5E2E2E2E2E2E2E2E2E2E2E2E2E2E2E2E2F5F5F5F5F5F5F5F5F5E2E2E2E2E2E2E2E2F5F5F5E2E2F5F5F5E2F5F5F5F5F5F5F5F5F5F5F5F5F5F5F5F5F5F5F5F5F5F5F5F5F5F5F5F5F5F5F5F5F5F5F5F5F5F5F5F5F5F5F5F5F5F5F5F5F5F5F5F5F5F5F5F5F5F5F5F5F5F5F5F5
310
F5F5F5F5F5F5F5F5F5F5F5F5F5F5F5F5F5F5F5F5F5F5F5F5F5F5F5F5F5F5F5F5F5F5F5F5F5F5F5F5F5F5F5F5F5F5F5F5F5F5F5F5F5F5F5F5F5F5F5F5F5F5F5F5F5F5F5F5F5F5F5F5F5F5F5F5F5F5F5F5F5F5F5F5F5F5F5F5F5F5F5F5F5F5F5F5F5F5F5F5F5F5F5F5F5F5E2F5F5F5E2E2F5F5F5E2F5F5F5F5F5F5F5F5F5F5F5
310
F5F5F5F5F5F5F5F5F5F5F5F5F5F5F5F5F5F5F5F5F5F5F5F5F5F5F5F5F5F5F5F5F5F5F5F5F5F5F5F5F5F5F5F5F5F5F5F5F5F5F5F5F5F5F5F5F5F5F5F5F5F5F5F5F5F5F5F5F5F5F5F5F5F5F5F5F5F5F5F5F5F5F5F5F5F5F5F5F5F5F5F5F5F5F5F5F5F5F5F5F5F5F5F5F5F5F5F5F5F5F5F5F5F5F5F5F5F5F5F5F5F5F5F5F5F5F5
310
F5F5F5F5F5F5F5F5F5F5F5F5F5F5F5F5F5F5F5F5F5F5F5F5F5F5F5F5F5F5F5F5E2F5F5F5E2E2F5F5F5E2F5F5F5F5F5F5F5F5F5F5F5F5F5F5F5F5F5F5F5F5F5F5F5F5F5F5F5F5F5F5F5F5F5F5F5F5F5F5F5F5F5F5F5F5F5F5F5F5F5F5F5F5F5F5F5F5F5F5F5F5F5F5F5F5F5F5F5F5F5F5F5F5F5F5F5F5F5F5F5F5F5F5F5F5F5
310
F5F5F5F5F5F5F5F5F5F5F5F5F5F5F5F5F5F5F5F5F5F5F5F5F5F5F5F5F5F5F5F5F5F5F5F5F5F5F5F5F5F5F5F5F5F5F5F5F5F5F5F5F5F5F5F5F5F5F5F5F5F5F5F5F5F5F5F5F5F5F5F5F5F5F5F5F5F5F5F5F5F5F5F5F5E2F5F5F5E2E2F5F5F5E2F5F5F5F5F5F5F5F5F5F5F5F5F5F5F5F5F5F5F5F5F5F5F5F5F5F5F5F5F5F5F5F5
310
F5F5F5F5F5F5F5F5F5F5F5F5F5F5F5F5F5F5F5F5F5F5F5F5F5F5F5F5F5F5F5F5F5F5F5F5F5F5F5F5F5F5F5F5F5F5F5F5F5F5F5F5F5F5F5F5F5F5F5F5F5F5F5F5F5F5F5F5F5F5F5F5F5F5F5F5F5F5F5F5F5F5F5F5F5F5F5F5F5F5F5F5F5F5F5F5F5F5F5F5F5F5F5F5F5F5F5F5F5F5F5F5F5F5F5F5F5F5F5F5F5F5F5F5F5F5F5
310
F5F5F5F5F5F5F5F5F5F5F5E2F5F5F5E2E2F5F5F5E2F5F5F5F5F5F5F5F5F5F5F5F5F5F5F5F5F5F5F5F5F5F5F5F5F5F5F5F5F5F5F5F5F5F5F5F5F5F5F5F5F5F5F5F5F5F5F5F5F5F5F5F5F5F5F5F5F5F5F5F5F5F5F5F5F5F5F5F5F5F5F5F5F5F5F5F5F5F5F5F5F5F5F5F5F5F5F5F5F5F5F5F5F5F5F5F5F5F5F5F5F5F5F5F5F5F5
310
F5F5F5F5F5F5F5F5F5F5F5F5F5F5F5F5F5F5F5F5F5F5F5F5F5F5F5F5F5F5F5F5F5F5F5F5F5F5F5F5F5F5F5F5F5F5F5F5F5F5F5F5F5F5F5F5F5F5F5F5F5F5F5F5E2F5F5F5E2E2F5F5F5E2F5F5F5F5F5F5F5F5F5F5F5F5F5F5F5F5F5F5F5F5F5F5F5F5F5F5F5F5F5F5F5F5F5F5F5F5F5F5F5F5F5F5F5F5F5F5F5F5F5F5F5F5F5
310
F5F5F5F5F5F5F5F5F5F5F5F5F5F5F5F5F5F5F5F5F5F5F5F5F5F5F5F5F5F5F5F5F5F5F5F5F5F5F5F5F5F5F5F5F5F5F5F5F5F5F5F5F5F5F5F5F5F5F5F5F5F5F5F5F5F5F5F5F5F5F5F5F5F5F5F5F5F5F5F5F5F5F5F5F5F5F5F5F5F5F5F5F5F5F5F5F5F5F5F5F5F5F5F5F5F5F5F5F5F5F5F5F5F5F5F5F5E2F5F5F5E2E2F5F5F5E2
310
F5F5F5F5F5F5F5F5F5F5F5F5F5F5F5F5F5F5F5F5F5F5F5F5F5F5F5F5F5F5F5F5F5F5F5F5F5F5F5F5F5F5F5F5F5F5F5F5F5F5F5F5F5F5F5F5F5F5F5F5F5F5F5F5F5F5F5F5F5F5F5F5F5F5F5F5F5F5F5F5F5F5F5F5F5F5F5F5F5F5F5F5F5F5F5F5F5F5F5F5F5F5F5F5F5F5F5F5F5F5F5F5F5F5F5F5F5F5F5F5F5F5F5F5F5F5F5
310
F5F5F5F5F5F5F5F5F5F5F5F5F5F5F5F5F5F5F5F5F5F5F5F5F5F5F5F5F5F5F5F5F5F5F5F5F5F5F5F5F5F5F5E2F5F5F5E2E2F5F5F5F5F5F5F5F5F5F5F5F5F5F5F5F5F5F5F5F5F5F5F5F5F5F5F5F5F5F5F5F5F5F5F5F5F5F5F5F5F5F5F5F5F5F5F5F5F5F5F5F5F5F5F5F5F5F5F5F5F5F5F5F5F5F5F5F5F5F5F5F5F5F5F5F5F5F5
310
F5F5F5F5F5F5F5F5F5F5F5F5F5F5F5F5F5F5F5F5F5F5F5F5F5F5F5F5F5F5F5F5F5F5F5F5F5F5F5F5F5F5F5F5F5F5F5F5F5F5F5F5F5F5F5F5F5F5F5F5F5F5F5F5F5F5F5F5F5F5F5F5F5F5F5F5F5F5F5F5F5F5F5F5F5F5F5F5F5F5F5F5F5F5F5F5F5F5F5F5E2E2F5F5F5F5F5F5F5F5F5F5F5F5F5F5F5F5F5F5F5F5F5F5F5F5F5
310
F5F5F5F5F5F5F5F5F5F5F5F5F5F5F5F5F5F5F5F5F5F5F5F5F5F5F5F5F5F5F5F5F5F5F5F5F5F5F5F5F5F5F5F5F5F5F5F5F5F5F5F5F5F5F5F5F5F5F5F5F5F5F5F5F5F5F5F5F5F5F5F5F5F5F5F5F5F5F5F5F5F5F5F5F5F5F5F5F5F5F5F5F5F5F5F5F5F5F5F5F5F5F5F5F5F5F5F5F5F5F5F5F5F5F5F5F5F5F5F5F5F5F5F5F5F5F5
310
F5F5F5F5F5F5F5F5F5F5F5F5F5F5F5F5F5F5F5F5F5F5F5F5F5F5E2E2F5F5F5F5F5F5F5F5F5F5F5F5F5F5F5F5F5F5F5F5F5F5F5F5F5F5F5F5F5F5F5F5F5F5F5F5F5F5F5F5F5F5F5F5F5F5F5F5F5F5F5F5F5F5F5F5F5F5F5F5F5F5F5F5F5F5F5F5F5F5F5F5F5F5F5F5F5F5F5F5F5F5F5F5F5F5F5F5F5F5F5F5F5F5F5F5F5F5F5
310
F5F5F5F5F5F5F5F5F5F5F5F5F5F5F5F5F5F5F5F5F5F5F5F5F5F5F5F5F5F5F5F5F5F5F5F5F5F5F5F5F5F5F5F5F5F5F5F5F5F5F5F5F5F5F5F5F5F5F5F5F5F5F5F5F5F5F5F5F5F5F5F5F5F5F5F5F5F5F5E2E2F5F5F5F5F5F5F5F5F5F5F5F5F5F5F5F5F5F5F5F5F5F5F5F5F5F5F5F5F5F5F5F5F5F5F5F5F5F5F5F5F5F5F5F5F5F5
310
F5F5F5F5F5F5F5F5F5F5F5F5F5F5F5F5F5F5F5F5F5F5F5F5F5F5F5F5F5F5F5F5F5F5F5F5F5F5F5F5F5F5F5F5F5F5F5F5F5F5F5F5F5F5F5F5F5F5F5F5F5F5F5F5F5F5F5F5F5F5F5F5F5F5F5F5F5F5F5F5F5F5F5F5F5F5F5F5F5F5F5F5F5F5F5F5F5F5F5F5F5F5F5F5F5F5F5F5F5F5F5F5F5F5F5F5F5F5F5F5F5F5F5F5F5F5F5
310
F5F5F5F5F5E2E2F5F5F5F5F5F5F5F5F5F5F5F5F5F5F5F5F5F5F5F5F5F5F5F5F5F5F5F5F5F5F5F5F5F5F5F5F5F5F5F5F5F5F5F5F5F5F5F5F5F5F5F5F5F5F5F5F5F5F5F5F5F5F5F5F5F5F5F5F5F5F5F5F5F5F5F5F5F5F5F5F5F5F5F5F5F5F5F5F5F5F5F5F5F5F5F5F5F5F5F5F5F5F5F5F5F5F5F5F5F5F5F5F5F5F5F5F5F5F5F5
310
F5F5F5F5F5F5F5F5F5F5F5F5F5F5F5F5F5F5F5F5F5F5F5F5F5F5F5F5F5F5F5F5F5F5F5F5F5F5F5F5F5F5F5F5F5F5F5F5F5F5F5F5F5F5F5F5F5F5E2E2F5F5F5F5F5F5F5F5F5F5F5F5F5F5F5F5F5F5F5F5F5F5F5F5F5F5F5F5F5F5F5F5F5F5F5F5F5F5F5F5F5F5F5F5F5F5F5F5F5F5F5F5F5F5F5F5F5F5F5F5F5F5F5F5F5F5F5
310
F5F5F5F5F5F5F5F5F5F5F5F5F5F5F5F5F5F5F5F5F5F5F5F5F5F5F5F5F5F5F5F5F5F5F5F5F5F5F5F5F5F5F5F5F5F5F5F5F5F5F5F5F5F5F5F5F5F5F5F5F5F5F5F5F5F5F5F5F5F5F5F5F5F5F5F5F5F5F5F5F5F5F5F5F5F5F5F5F5F5F5F5F5F5F5F5F5F5F5F5F5F5F5F5F5F5F5F5F5F5F5E2E2F5F5F5F5F5F5F5F5F5F5F5F5F5F5
310
F5F5F5F5F5F5F5F5F5F5F5F5F5F5F5F5F5F5F5F5F5F5F5F5F5F5F5F5F5F5F5F5F5F5F5F5F5F5F5F5F5F5F5F5F5F5F5F5F5F5F5F5F5F5F5F5F5F5F5F5F5F5F5F5F5F5F5F5F5F5F5F5F5F5F5F5F5F5F5F5F5F5F5F5F5F5F5F5F5F5F5F5F5F5F5F5F5F5F5F5F5F5F5F5F5F5F5F5F5F5F5F5F5F5F5F5F5F5F5F5F5F5F5F5F5F5F5
310
F5F5F5F5F5F5F5F5F5F5F5F5F5F5F5F5F5F5F5F5F5F5F5F5F5F5F5F5F5F5F5F5F5F5F5F5F5E2E2F5F5F5F5F5F5F5F5F5F5F5F5F5F5F5F5F5F5F5F5F5F5F5F5F5F5F5F5F5F5F5F5F5F5F5F5F5F5F5F5F5F5F5F5F5F5F5F5F5F5F5F5F5F5F5F5F5F5F5F5F5F5F5F5F5F5F5F5F5F5F5F5F5F5F5F5F5F5F5F5F5F5F5F5F5F5F5F5
310
F5F5F5F5F5F5F5F5F5F5F5F5F5F5F5F5F5F5F5F5F5F5F5F5F5F5F5F5F5F5F5F5F5F5F5F5F5F5F5F5F5F5F5F5F5F5F5F5F5F5F5F5F5F5F5F5F5F5F5F5F5F5F5F5F5F5F5F5F5F5F5F5F5F5F5F5F5F5F5F5F5F5F5F5F5F5F5F5F5F5E2E2F5F5F5F5F5F5F5F5F5F5F5F5F5F5F5F5F5F5F5F5F5F5F5F5F5F5F5F5F5F5F5F5F5F5F5
310
F5F5F5F5F5F5F5F5F5F5F5F5F5F5F5F5F5F5F5F5F5F5F5F5F5F5F5F5F5F5F5F5F5F5F5F5F5F5F5F5F5F5F5F5F5F5F5F5F5F5F5F5F5F5F5F5F5F5F5F5F5F5F5F5F5F5F5F5F5F5F5F5F5F5F5F5F5F5F5F5F5F5F5F5F5F5F5F5F5F5F5F5F5F5F5F5F5F5F5F5F5F5F5F5F5F5F5F5F5F5F5F5F5F5F5F5F5F5F5F5F5F5F5F5F5F5F5
310
F5F5F5F5F5F5F5F5F5F5F5F5F5F5F5F5E2E2F5F5F5E2F5F5F5F5F5F5F5F5F5F5F5F5F5F5F5F5F5F5F5F5F5F5F5F5F5F5F5F5F5F5F5F5F5F5F5F5F5F5F5F5F5F5F5F5F5F5F5F5F5F5F5F5F5F5F5F5F5F5F5F5F5F5F5F5F5F5F5F5F5F5F5F5F5F5F5F5F5F5F5F5F5F5F5F5F5F5F5F5F5F5F5F5F5F5F5F5F5F5F5F5F5F5F5F5F5
310
F5F5F5F5F5F5F5F5F5F5F5F5F5F5F5F5F5F5F5F5F5F5F5F5F5F5F5F5F5F5F5F5F5F5F5F5F5F5F5F5F5F5F5F5F5F5F5F5F5F5F5F5F5F5F5F5F5F5F5F5F5F5F5F5F5E2F5F5F5E2E2F5F5F5E2F5F5F5F5F5F5F5F5F5F5F5F5F5F5F5F5F5F5F5F5F5F5F5F5F5F5F5F5F5F5F5F5F5F5F5F5F5F5F5F5F5F5F5F5F5F5F5F5F5F5F5F5
310
F5F5F5F5F5F5F5F5F5F5F5F5F5F5F5F5F5F5F5F5F5F5F5F5F5F5F5F5F5F5F5F5F5F5F5F5F5F5F5F5F5F5F5F5F5F5F5F5F5F5F5F5F5F5F5F5F5F5F5F5F5F5F5F5F5F5F5F5F5F5F5F5F5F5F5F5F5F5F5F5F5F5F5F5F5F5F5F5F5F5F5F5F5F5F5F5F5F5F5F5F5F5F5F5F5F5F5F5F5F5F5F5F5F5F5F5F5F5E2F5F5F5E2E2F5F5F5
310
E2F5F5F5F5F5F5F5F5F5F5F5F5F5F5F5F5F5F5F5F5F5F5F5F5F5F5F5F5F5F5F5F5F5F5F5F5F5F5F5F5F5F5F5F5F5F5F5F5F5F5F5F5F5F5F5F5F5F5F5F5F5F5F5F5F5F5F5F5F5F5F5F5F5F5F5F5F5F5F5F5F5F5F5F5F5F5F5F5F5F5F5F5F5F5F5F5F5F5F5F5F5F5F5F5F5F5F5F5F5F5F5F5F5F5F5F5F5F5F5F5F5F5F5F5F5F5
310
F5F5F5F5F5F5F5F5F5F5F5F5F5F5F5F5F5F5F5F5F5F5F5F5F5F5F5F5F5F5F5F5F5F5F5F5F5F5F5F5F5F5F5F5E2F5F5F5E2E2F5F5F5E2F5F5F5F5F5F5F5F5F5F5F5F5F5F5F5F5F5F5F5F5F5F5F5F5F5F5F5F5F5F5F5F5F5F5F5F5F5F5F5F5F5F5F5F5F5F5F5F5F5F5F5F5F5F5F5F5F5F5F5F5F5F5F5F5F5F5F5F5F5F5F5F5F5
310
F5F5F5F5F5F5F5F5F5F5F5F5F5F5F5F5F5F5F5F5F5F5F5F5F5F5F5F5F5F5F5F5F5F5F5F5F5F5F5F5F5F5F5F5F5F5F5F5F5F5F5F5F5F5F5F5F5F5F5F5F5F5F5F5F5F5F5F5F5F5F5F5F5F5F5F5F5F5F5F5F5F5F5F5F5F5F5F5F5F5F5F5F5F5F5F5F5E2F5F5F5E2E2F5F5F5E2F5F5F5F5F5F5F5F5F5F5F5F5F5F5F5F5F5F5F5F5
310
F5F5F5F5F5F5F5F5F5F5F5F5F5F5F5F5F5F5F5F5F5F5F5F5F5F5F5F5F5F5F5F5F5F5F5F5F5F5F5F5F5F5F5F5F5F5F5F5F5F5F5F5F5F5F5F5F5F5F5F5F5F5F5F5F5F5F5F5F5F5F5F5F5F5F5F5F5F5F5F5F5F5F5F5F5F5F5F5F5F5F5F5F5F5F5F5F5F5F5F5F5F5F5F5F5F5F5F5F5F5F5F5F5F5F5F5F5F5F5F5F5F5F5F5F5F5F5
310
F5F5F5F5F5F5F5F5F5F5F5F5F5F5F5F5F5F5F5F5F5F5F5E2F5F5F5E2E2F5F5F5E2F5F5F5F5F5F5F5F5F5F5F5F5F5F5F5F5F5F5F5F5F5F5F5F5F5F5F5F5F5F5F5F5F5F5F5F5F5F5F5F5F5F5F5F5F5F5F5F5F5F5F5F5F5F5F5F5F5F5F5F5F5F5F5F5F5F5F5F5F5F5F5F5F5F5F5F5F5F5F5F5F5F5F5F5F5F5F5F5F5F5F5F5F5F5
310
F5F5F5F5F5F5F5F5F5F5F5F5F5F5F5F5F5F5F5F5F5F5F5F5F5F5F5F5F5F5F5F5F5F5F5F5F5F5F5F5F5F5F5F5F5F5F5F5F5F5F5F5F5F5F5F5F5F5F5F5F5F5F5F5F5F5F5F5F5F5F5F5F5F5F5F5E2F5F5F5E2E2F5F5F5E2F5F5F5F5F5F5F5F5F5F5F5F5F5F5F5F5F5F5F5F5F5F5F5F5F5F5F5F5F5F5F5F5F5F5F5F5F5F5F5F5F5
310
F5F5F5F5F5F5F5F5F5F5F5F5F5F5F5F5F5F5F5F5F5F5F5F5F5F5F5F5F5F5F5F5F5F5F5F5F5F5F5F5F5F5F5F5F5F5F5F5F5F5F5F5F5F5F5F5F5F5F5F5F5F5F5F5F5F5F5F5F5F5F5F5F5F5F5F5F5F5F5F5F5F5F5F5F5F5F5F5F5F5F5F5F5F5F5F5F5F5F5F5F5F5F5F5F5F5F5F5F5F5F5F5F5F5F5F5F5F5F5F5F5F5F5F5F5F5F5
310
F5F5E2F5F5F5E2E2F5F5F5E2F5F5F5F5F5F5F5F5F5F5F5F5F5F5F5F5F5F5F5F5F5F5F5F5F5F5F5F5F5F5F5F5F5F5F5F5F5F5F5F5F5F5F5F5F5F5F5F5F5F5F5F5F5F5F5F5F5F5F5F5F5F5F5F5F5F5F5F5F5F5F5F5F5F5F5F5F5F5F5F5F5F5F5F5F5F5F5F5F5F5F5F5F5F5F5F5F5F5F5F5F5F5F5F5F5F5F5F5F5F5F5F5F5F5F5
310
F5F5F5F5F5F5F5F5F5F5F5F5F5F5F5F5F5F5F5F5F5F5F5F5F5F5F5F5F5F5F5F5F5F5F5F5F5F5F5F5F5F5F5F5F5F5F5F5F5F5F5F5F5F5F5E2F5F5F5E2E2F5F5F5E2F5F5F5F5F5F5F5F5F5F5F5F5F5F5F5F5F5F5F5F5F5F5F5F5F5F5F5F5F5F5F5F5F5F5F5F5F5F5F5F5F5F5F5F5F5F5F5F5F5F5F5F5F5F5F5F5F5F5F5F5F5F5
310
F5F5F5F5F5F5F5F5F5F5F5F5F5F5F5F5F5F5F5F5F5F5F5F5F5F5F5F5F5F5F5F5F5F5F5F5F5F5F5F5F5F5F5F5F5F5F5F5F5F5F5F5F5F5F5F5F5F5F5F5F5F5F5F5F5F5F5F5F5F5F5F5F5F5F5F5F5F5F5F5F5F5F5F5F5F5F5F5F5F5F5F5F5F5F5F5F5F5F5F5F5F5F5F5F5F5F5F5E2F5F5F5E2E2F5F5F5E2F5F5F5F5F5F5F5F5F5
310
F5F5F5F5F5F5F5F5F5F5F5F5F5F5F5F5F5F5F5F5F5F5F5F5F5F5F5F5F5F5F5F5F5F5F5F5F5F5F5F5F5F5F5F5F5F5F5F5F5F5F5F5F5F5F5F5F5F5F5F5F5F5F5F5F5F5F5F5F5F5F5F5F5F5F5F5F5F5F5F5F5F5F5F5F5F5F5F5F5F5F5F5F5F5F5F5F5F5F5F5F5F5F5F5F5F5F5F5F5F5F5F5F5F5F5F5F5F5F5F5F5F5F5F5F5F5F5
310
F5F5F5F5F5F5F5F5F5F5F5F5F5F5F5F5F5F5F5F5F5F5F5F5F5F5F5F5F5F5F5F5F5F5E2F5F5F5E2E2F5F5F5E2F5F5F5F5F5F5F5F5F5F5F5F5F5F5F5F5F5F5F5F5F5F5F5F5F5F5F5F5F5F5F5F5F5F5F5F5F5F5F5F5F5F5F5F5F5F5F5F5F5F5F5F5F5F5F5F5F5F5F5F5F5F5F5F5F5F5F5F5F5F5F5F5F5F5F5F5F5F5F5F5F5F5F5
310
F5F5F5F5F5F5F5F5F5F5F5F5F5F5F5F5F5F5F5F5F5F5F5F5F5F5F5F5F5F5F5F5F5F5F5F5F5F5F5F5F5F5F5F5F5F5F5F5F5F5F5F5F5F5F5F5F5F5F5F5F5F5F5F5F5F5F5F5F5F5F5F5F5F5F5F5F5F5F5F5F5F5F5F5F5F5F5E2F5F5F5E2E2F5F5F5E2F5F5F5F5F5F5F5F5F5F5F5F5F5F5F5F5F5F5F5F5F5F5F5F5F5F5F5F5F5F5
310
F5F5F5F5F5F5F5F5F5F5F5F5F5F5F5F5F5F5F5F5F5F5F5F5F5F5F5F5F5F5F5F5F5F5F5F5F5F5F5F5F5F5F5F5F5F5F5F5F5F5F5F5F5F5F5F5F5F5F5F5F5F5F5F5F5F5F5F5F5F5F5F5F5F5F5F5F5F5F5F5F5F5F5F5F5F5F5F5F5F5F5F5F5F5F5F5F5F5F5F5F5F5F5F5F5F5F5F5F5F5F5F5F5F5F5F5F5F5F5F5F5F5F5F5F5F5F5
310
F5F5F5F5F5F5F5F5F5F5F5F5F5E2F5F5F5E2E2F5F5F5E2F5F5F5F5F5F5F5F5F5F5F5F5F5F5F5F5F5F5F5F5F5F5F5F5F5F5F5F5F5F5F5F5F5F5F5F5F5F5F5F5F5F5F5F5F5F5F5F5F5F5F5F5F5F5F5F5F5F5F5F5F5F5F5F5F5F5F5F5F5F5F5F5F5F5F5F5F5F5F5F5F5F5F5F5F5F5F5F5F5F5F5F5F5F5F5F5F5F5F5F5F5F5F5F5
310
F5F5F5F5F5F5F5F5F5F5F5F5F5F5F5F5F5F5F5F5F5F5F5F5F5F5F5F5F5F5F5F5F5F5F5F5F5F5F5F5F5F5F5F5F5F5F5F5F5F5F5F5F5F5F5F5F5F5F5F5F5F5F5F5F5F5E2F5F5F5E2E2F5F5F5E2F5F5F5F5F5F5F5F5F5F5F5F5F5F5F5F5F5F5F5F5F5F5F5F5F5F5F5F5F5F5F5F5F5F5F5F5F5F5F5F5F5F5F5F5F5F5F5F5F5F5F5
310
F5F5F5F5F5F5F5F5F5F5F5F5F5F5F5F5F5F5F5F5F5F5F5F5F5F5F5F5F5F5F5F5F5F5F5F5F5F5F5F5F5F5F5F5F5F5F5F5F5F5F5F5F5F5F5F5F5F5F5F5F5F5F5F5F5F5F5F5F5F5F5F5F5F5F5F5F5F5F5F5F5F5F5F5F5F5F5F5F5F5F5F5F5F5F5F5F5F5F5F5F5F5F5F5F5F5F5F5F5F5F5F5F5F5F5F5F5F5F5E2F5F5F5E2E2F5F5
310
F5E2F5F5F5F5F5F5F5F5F5F5F5F5F5F5F5F5F5F5F5F5F5F5F5F5F5F5F5F5F5F5F5F5F5F5F5F5F5F5F5F5F5F5F5F5F5F5F5F5F5F5F5F5F5F5F5F5F5F5F5F5F5F5F5F5F5F5F5F5F5F5F5F5F5F5F5F5F5F5F5F5F5F5F5F5F5F5F5F5F5F5F5F5F5F5F5F5F5F5F5F5F5F5F5F5F5F5F5F5F5F5F5F5F5F5F5F5F5F5F5F5F5F5F5F5F5
310
F5F5F5F5F5F5F5F5F5F5F5F5F5F5F5F5F5F5F5F5F5F5F5F5F5F5F5F5F5F5F5F5F5F5F5F5F5F5F5F5F5F5F5F5F5E2F5F5F5E2E2F5F5F5F5F5F5F5F5F5F5F5F5F5F5F5F5F5F5F5F5F5F5F5F5F5F5F5F5F5F5F5F5F5F5F5F5F5F5F5F5F5F5F5F5F5F5F5F5F5F5F5F5F5F5F5F5F5F5F5F5F5F5F5F5F5F5F5F5F5F5F5F5F5F5F5F5
310
F5F5F5F5F5F5F5F5F5F5F5F5F5F5F5F5F5F5F5F5F5F5F5F5F5F5F5F5F5F5F5F5F5F5F5F5F5F5F5F5F5F5F5F5F5F5F5F5F5F5F5F5F5F5F5F5F5F5F5F5F5F5F5F5F5F5F5F5F5F5F5F5F5F5F5F5F5F5F5F5F5F5F5F5F5F5F5F5F5F5F5F5F5F5F5F5F5F5F5F5F5F5E2E2F5F5F5F5F5F5F5F5F5F5F5F5F5F5F5F5F5F5F5F5F5F5F5
310
F5F5F5F5F5F5F5F5F5F5F5F5F5F5F5F5F5F5F5F5F5F5F5F5F5F5F5F5F5F5F5F5F5F5F5F5F5F5F5F5F5F5F5F5F5F5F5F5F5F5F5F5F5F5F5F5F5F5F5F5F5F5F5F5F5F5F5F5F5F5F5F5F5F5F5F5F5F5F5F5F5F5F5F5F5F5F5F5F5F5F5F5F5F5F5F5F5F5F5F5F5F5F5F5F5F5F5F5F5F5F5F5F5F5F5F5F5F5F5F5F5F5F5F5F5F5F5
310
F5F5F5F5F5F5F5F5F5F5F5F5F5F5F5F5F5F5F5F5F5F5F5F5F5F5F5F5E2E2F5F5F5F5F5F5F5F5F5F5F5F5F5F5F5F5F5F5F5F5F5F5F5F5F5F5F5F5F5F5F5F5F5F5F5F5F5F5F5F5F5F5F5F5F5F5F5F5F5F5F5F5F5F5F5F5F5F5F5F5F5F5F5F5F5F5F5F5F5F5F5F5F5F5F5F5F5F5F5F5F5F5F5F5F5F5F5F5F5F5F5F5F5F5F5F5F5
310
F5F5F5F5F5F5F5F5F5F5F5F5F5F5F5F5F5F5F5F5F5F5F5F5F5F5F5F5F5F5F5F5F5F5F5F5F5F5F5F5F5F5F5F5F5F5F5F5F5F5F5F5F5F5F5F5F5F5F5F5F5F5F5F5F5F5F5F5F5F5F5F5F5F5F5F5F5F5F5F5F5E2E2F5F5F5F5F5F5F5F5F5F5F5F5F5F5F5F5F5F5F5F5F5F5F5F5F5F5F5F5F5F5F5F5F5F5F5F5F5F5F5F5F5F5F5F5
310
F5F5F5F5F5F5F5F5F5F5F5F5F5F5F5F5F5F5F5F5F5F5F5F5F5F5F5F5F5F5F5F5F5F5F5F5F5F5F5F5F5F5F5F5F5F5F5F5F5F5F5F5F5F5F5F5F5F5F5F5F5F5F5F5F5F5F5F5F5F5F5F5F5F5F5F5F5F5F5F5F5F5F5F5F5F5F5F5F5F5F5F5F5F5F5F5F5F5F5F5F5F5F5F5F5F5F5F5F5F5F5F5F5F5F5F5F5F5F5F5F5F5F5F5F5F5F5
310
F5F5F5F5F5F5F5E2E2F5F5F5F5F5F5F5F5F5F5F5F5F5F5F5F5F5F5F5F5F5F5F5F5F5F5F5F5F5F5F5F5F5F5F5F5F5F5F5F5F5F5F5F5F5F5F5F5F5F5F5F5F5F5F5F5F5F5F5F5F5F5F5F5F5F5F5F5F5F5F5F5F5F5F5F5F5F5F5F5F5F5F5F5F5F5F5F5F5F5F5F5F5F5F5F5F5F5F5F5F5F5F5F5F5F5F5F5F5F5F5F5F5F5F5F5F5F5
310
F5F5F5F5F5F5F5F5F5F5F5F5F5F5F5F5F5F5F5F5F5F5F5F5F5F5F5F5F5F5F5F5F5F5F5F5F5F5F5F5F5F5F5F5F5F5F5F5F5F5F5F5F5F5F5F5F5F5F5F5E2E2F5F5F5F5F5F5F5F5F5F5F5F5F5F5F5F5F5F5F5F5F5F5F5F5F5F5F5F5F5F5F5F5F5F5F5F5F5F5F5F5F5F5F5F5F5F5F5F5F5F5F5F5F5F5F5F5F5F5F5F5F5F5F5F5F5
310
F5F5F5F5F5F5F5F5F5F5F5F5F5F5F5F5F5F5F5F5F5F5F5F5F5F5F5F5F5F5F5F5F5F5F5F5F5F5F5F5F5F5F5F5F5F5F5F5F5F5F5F5F5F5F5F5F5F5F5F5F5F5F5F5F5F5F5F5F5F5F5F5F5F5F5F5F5F5F5F5F5F5F5F5F5F5F5F5F5F5F5F5F5F5F5F5F5F5F5F5F5F5F5F5F5F5F5F5F5F5F5F5F5E2E2F5F5F5F5F5F5F5F5F5F5F5F5
310
F5F5F5F5F5F5F5F5F5F5F5F5F5F5F5F5F5F5F5F5F5F5F5F5F5F5F5F5F5F5F5F5F5F5F5F5F5F5F5F5F5F5F5F5F5F5F5F5F5F5F5F5F5F5F5F5F5F5F5F5F5F5F5F5F5F5F5F5F5F5F5F5F5F5F5F5F5F5F5F5F5F5F5F5F5F5F5F5F5F5F5F5F5F5F5F5F5F5F5F5F5F5F5F5F5F5F5F5F5F5F5F5F5F5F5F5F5F5F5F5F5F5F5F5F5F5F5
310
F5F5F5F5F5F5F5F5F5F5F5F5F5F5F5F5F5F5F5F5F5F5F5F5F5F5F5F5F5F5F5F5F5F5F5F5F5F5F5E2E2F5F5F5F5F5F5F5F5F5F5F5F5F5F5F5F5F5F5F5F5F5F5F5F5F5F5F5F5F5F5F5F5F5F5F5F5F5F5F5F5F5F5F5F5F5F5F5F5F5F5F5F5F5F5F5F5F5F5F5F5F5F5F5F5F5F5F5F5F5F5F5F5F5F5F5F5F5F5F5F5F5F5F5F5F5F5
310
F5F5F5F5F5F5F5F5F5F5F5F5F5F5F5F5F5F5F5F5F5F5F5F5F5F5F5F5F5F5F5F5F5F5F5F5F5F5F5F5F5F5F5F5F5F5F5F5F5F5F5F5F5F5F5F5F5F5F5F5F5F5F5F5F5F5F5F5F5F5F5F5F5F5F5F5F5F5F5F5F5F5F5F5F5F5F5F5F5F5F5F5E2E2F5F5F5E2F5F5F5F5F5F5F5F5F5F5F5F5F5F5F5F5F5F5F5F5F5F5F5F5F5F5F5F5F5
310
F5F5F5F5F5F5F5F5F5F5F5F5F5F5F5F5F5F5F5F5F5F5F5F5F5F5F5F5F5F5F5F5F5F5F5F5F5F5F5F5F5F5F5F5F5F5F5F5F5F5F5F5F5F5F5F5F5F5F5F5F5F5F5F5F5F5F5F5F5F5F5F5F5F5F5F5F5F5F5F5F5F5F5F5F5F5F5F5F5F5F5F5F5F5F5F5F5F5F5F5F5F5F5F5F5F5F5F5F5F5F5F5F5F5F5F5F5F5F5F5F5F5F5F5F5F5F5
310
F5F5F5F5F5F5F5F5F5F5F5F5F5F5E2F5F5F5E2E2F5F5F5E2F5F5F5F5F5F5F5F5F5F5F5F5F5F5F5F5F5F5F5F5F5F5F5F5F5F5F5F5F5F5F5F5F5F5F5F5F5F5F5F5F5F5F5F5F5F5F5F5F5F5F5F5F5F5F5F5F5F5F5F5F5F5F5F5F5F5F5F5F5F5F5F5F5F5F5F5F5F5F5F5F5F5F5F5F5F5F5F5F5F5F5F5F5F5F5F5F5F5F5F5F5F5F5
310
F5F5F5F5F5F5F5F5F5F5F5F5F5F5F5F5F5F5F5F5F5F5F5F5F5F5F5F5F5F5F5F5F5F5F5F5F5F5F5F5F5F5F5F5F5F5F5F5F5F5F5F5F5F5F5F5F5F5F5F5F5F5F5F5F5F5F5E2F5F5F5E2E2F5F5F5E2F5F5F5F5F5F5F5F5F5F5F5F5F5F5F5F5F5F5F5F5F5F5F5F5F5F5F5F5F5F5F5F5F5F5F5F5F5F5F5F5F5F5F5F5F5F5F5F5F5F5
310
F5F5F5F5F5F5F5F5F5F5F5F5F5F5F5F5F5F5F5F5F5F5F5F5F5F5F5F5F5F5F5F5F5F5F5F5F5F5F5F5F5F5F5F5F5F5F5F5F5F5F5F5F5F5F5F5F5F5F5F5F5F5F5F5F5F5F5F5F5F5F5F5F5F5F5F5F5F5F5F5F5F5F5F5F5F5F5F5F5F5F5F5F5F5F5F5F5F5F5F5F5F5F5F5F5F5F5F5F5F5F5F5F5F5F5F5F5F5F5F5E2F5F5F5E2E2F5
310
F5F5E2F5F5F5F5F5F5F5F5F5F5F5F5F5F5F5F5F5F5F5F5F5F5F5F5F5F5F5F5F5F5F5F5F5F5F5F5F5F5F5F5F5F5F5F5F5F5F5F5F5F5F5F5F5F5F5F5F5F5F5F5F5F5F5F5F5F5F5F5F5F5F5F5F5F5F5F5F5F5F5F5F5F5F5F5F5F5F5F5F5F5F5F5F5F5F5F5F5F5F5F5F5F5F5F5F5F5F5F5F5F5F5F5F5F5F5F5F5F5F5F5F5F5F5F5
310
F5F5F5F5F5F5F5F5F5F5F5F5F5F5F5F5F5F5F5F5F5F5F5F5F5F5F5F5F5F5F5F5F5F5F5F5F5F5F5F5F5F5F5F5F5F5E2F5F5F5E2E2F5F5F5E2F5F5F5F5F5F5F5F5F5F5F5F5F5F5F5F5F5F5F5F5F5F5F5F5F5F5F5F5F5F5F5F5F5F5F5F5F5F5F5F5F5F5F5F5F5F5F5F5F5F5F5F5F5F5F5F5F5F5F5F5F5F5F5F5F5F5F5F5F5F5F5
310
F5F5F5F5F5F5F5F5F5F5F5F5F5F5F5F5F5F5F5F5F5F5F5F5F5F5F5F5F5F5F5F5F5F5F5F5F5F5F5F5F5F5F5F5F5F5F5F5F5F5F5F5F5F5F5F5F5F5F5F5F5F5F5F5F5F5F5F5F5F5F5F5F5F5F5F5F5F5F5F5F5F5F5F5F5F5F5F5F5F5F5F5F5F5F5F5F5F5F5E2F5F5F5E2E2F5F5F5E2F5F5F5F5F5F5F5F5F5F5F5F5F5F5F5F5F5F5
310
F5F5F5F5F5F5F5F5F5F5F5F5F5F5F5F5F5F5F5F5F5F5F5F5F5F5F5F5F5F5F5F5F5F5F5F5F5F5F5F5F5F5F5F5F5F5F5F5F5F5F5F5F5F5F5F5F5F5F5F5F5F5F5F5F5F5F5F5F5F5F5F5F5F5F5F5F5F5F5F5F5F5F5F5F5F5F5F5F5F5F5F5F5F5F5F5F5F5F5F5F5F5F5F5F5F5F5F5F5F5F5F5F5F5F5F5F5F5F5F5F5F5F5F5F5F5F5
310
F5F5F5F5F5F5F5F5F5F5F5F5F5F5F5F5F5F5F5F5F5F5F5F5F5E2F5F5F5E2E2F5F5F5E2F5F5F5F5F5F5F5F5F5F5F5F5F5F5F5F5F5F5F5F5F5F5F5F5F5F5F5F5F5F5F5F5F5F5F5F5F5F5F5F5F5F5F5F5F5F5F5F5F5F5F5F5F5F5F5F5F5F5F5F5F5F5F5F5F5F5F5F5F5F5F5F5F5F5F5F5F5F5F5F5F5F5F5F5F5F5F5F5F5F5F5F5
310
F5F5F5F5F5F5F5F5F5F5F5F5F5F5F5F5F5F5F5F5F5F5F5F5F5F5F5F5F5F5F5F5F5F5F5F5F5F5F5F5F5F5F5F5F5F5F5F5F5F5F5F5F5F5F5F5F5F5F5F5F5F5F5F5F5F5F5F5F5F5F5F5F5F5F5F5F5F5E2F5F5F5E2E2F5F5F5E2F5F5F5F5F5F5F5F5F5F5F5F5F5F5F5F5F5F5F5F5F5F5F5F5F5F5F5F5F5F5F5F5F5F5F5F5F5F5F5
310
F5F5F5F5F5F5F5F5F5F5F5F5F5F5F5F5F5F5F5F5F5F5F5F5F5F5F5F5F5F5F5F5F5F5F5F5F5F5F5F5F5F5F5F5F5F5F5F5F5F5F5F5F5F5F5F5F5F5F5F5F5F5F5F5F5F5F5F5F5F5F5F5F5F5F5F5F5F5F5F5F5F5F5F5F5F5F5F5F5F5F5F5F5F5F5F5F5F5F5F5F5F5F5F5F5F5F5F5F5F5F5F5F5F5F5F5F5F5F5F5F5F5F5F5F5F5F5
310
F5F5F5F5E2F5F5F5E2E2F5F5F5E2F5F5F5F5F5F5F5F5F5F5F5F5F5F5F5F5F5F5F5F5F5F5F5F5F5F5F5F5F5F5F5F5F5F5F5F5F5F5F5F5F5F5F5F5F5F5F5F5F5F5F5F5F5F5F5F5F5F5F5F5F5F5F5F5F5F5F5F5F5F5F5F5F5F5F5F5F5F5F5F5F5F5F5F5F5F5F5F5F5F5F5F5F5F5F5F5F5F5F5F5F5F5F5F5F5F5F5F5F5F5F5F5F5
310
F5F5F5F5F5F5F5F5F5F5F5F5F5F5F5F5F5F5F5F5F5F5F5F5F5F5F5F5F5F5F5F5F5F5F5F5F5F5F5F5F5F5F5F5F5F5F5F5F5F5F5F5F5F5F5F5F5E2F5F5F5E2E2F5F5F5E2F5F5F5F5F5F5F5F5F5F5F5F5F5F5F5F5F5F5F5F5F5F5F5F5F5F5F5F5F5F5F5F5F5F5F5F5F5F5F5F5F5F5F5F5F5F5F5F5F5F5F5F5F5F5F5F5F5F5F5F5
310
F5F5F5F5F5F5F5F5F5F5F5F5F5F5F5F5F5F5F5F5F5F5F5F5F5F5F5F5F5F5F5F5F5F5F5F5F5F5F5F5F5F5F5F5F5F5F5F5F5F5F5F5F5F5F5F5F5F5F5F5F5F5F5F5F5F5F5F5F5F5F5F5F5F5F5F5F5F5F5F5F5F5F5F5F5F5F5F5F5F5F5F5F5F5F5F5F5F5F5F5F5F5F5F5F5F5F5F5F5F5E2F5F5F5E2E2F5F5F5E2F5F5F5F5F5F5F5
310
F5F5F5F5F5F5F5F5F5F5F5F5F5F5F5F5F5F5F5F5F5F5F5F5F5F5F5F5F5F5F5F5F5F5F5F5F5F5F5F5F5F5F5F5F5F5F5F5F5F5F5F5F5F5F5F5F5F5F5F5F5F5F5F5F5F5F5F5F5F5F5F5F5F5F5F5F5F5F5F5F5F5F5F5F5F5F5F5F5F5F5F5F5F5F5F5F5F5F5F5F5F5F5F5F5F5F5F5F5F5F5F5F5F5F5F5F5F5F5F5F5F5F5F5F5F5F5
310
F5F5F5F5F5F5F5F5F5F5F5F5F5F5F5F5F5F5F5F5F5F5F5F5F5F5F5F5F5F5F5F5F5F5F5F5E2F5F5F5E2E2F5F5F5E2F5F5F5F5F5F5F5F5F5F5F5F5F5F5F5F5F5F5F5F5F5F5F5F5F5F5F5F5F5F5F5F5F5F5F5F5F5F5F5F5F5F5F5F5F5F5F5F5F5F5F5F5F5F5F5F5F5F5F5F5F5F5F5F5F5F5F5F5F5F5F5F5F5F5F5F5F5F5F5F5F5
310
F5F5F5F5F5F5F5F5F5F5F5F5F5F5F5F5F5F5F5F5F5F5F5F5F5F5F5F5F5F5F5F5F5F5F5F5F5F5F5F5F5F5F5F5F5F5F5F5F5F5F5F5F5F5F5F5F5F5F5F5F5F5F5F5F5F5F5F5F5F5F5F5F5F5F5F5F5F5F5F5F5F5F5F5F5F5F5F5F5E2F5F5F5E2E2F5F5F5E2F5F5F5F5F5F5F5F5F5F5F5F5F5F5F5F5F5F5F5F5F5F5F5F5F5F5F5F5
310
F5F5F5F5F5F5F5F5F5F5F5F5F5F5F5F5F5F5F5F5F5F5F5F5F5F5F5F5F5F5F5F5F5F5F5F5F5F5F5F5F5F5F5F5F5F5F5F5F5F5F5F5F5F5F5F5F5F5F5F5F5F5F5F5F5F5F5F5F5F5F5F5F5F5F5F5F5F5F5F5F5F5F5F5F5F5F5F5F5F5F5F5F5F5F5F5F5F5F5F5F5F5F5F5F5F5F5F5F5F5F5F5F5F5F5F5F5F5F5F5F5F5F5F5F5F5F5
310
F5F5F5F5F5F5F5F5F5F5F5F5F5F5F5E2F5F5F5E2E2F5F5F5E2F5F5F5F5F5F5F5F5F5F5F5F5F5F5F5F5F5F5F5F5F5F5F5F5F5F5F5F5F5F5F5F5F5F5F5F5F5F5F5F5F5F5F5F5F5F5F5F5F5F5F5F5F5F5F5F5F5F5F5F5F5F5F5F5F5F5F5F5F5F5F5F5F5F5F5F5F5F5F5F5F5F5F5F5F5F5F5F5F5F5F5F5F5F5F5F5F5F5F5F5F5F5
310
F5F5F5F5F5F5F5F5F5F5F5F5F5F5F5F5F5F5F5F5F5F5F5F5F5F5F5F5F5F5F5F5F5F5F5F5F5F5F5F5F5F5F5F5F5F5F5F5F5F5F5F5F5F5F5F5F5F5F5F5F5F5F5F5F5F5F5F5E2F5F5F5E2E2F5F5F5E2F5F5F5F5F5F5F5F5F5F5F5F5F5F5F5F5F5F5F5F5F5F5F5F5F5F5F5F5F5F5F5F5F5F5F5F5F5F5F5F5F5F5F5F5F5F5F5F5F5
310
F5F5F5F5F5F5F5F5F5F5F5F5F5F5F5F5F5F5F5F5F5F5F5F5F5F5F5F5F5F5F5F5F5F5F5F5F5F5F5F5F5F5F5F5F5F5F5F5F5F5F5F5F5F5F5F5F5F5F5F5F5F5F5F5F5F5F5F5F5F5F5F5F5F5F5F5F5F5F5F5F5F5F5F5F5F5F5F5F5F5F5F5F5F5F5F5F5F5F5F5F5F5F5F5F5F5F5F5F5F5F5F5F5F5F5F5F5F5F5F5F5E2F5F5F5E2E2
310
F5F5F5F5F5F5F5F5F5F5F5F5F5F5F5F5F5F5F5F5F5F5F5F5F5F5F5F5F5F5F5F5F5F5F5F5F5F5F5F5F5F5F5F5F5F5F5F5F5F5F5F5F5F5F5F5F5F5F5F5F5F5F5F5F5F5F5F5F5F5F5F5F5F5F5F5F5F5F5F5F5F5F5F5F5F5F5F5F5F5F5F5F5F5F5F5F5F5F5F5F5F5F5F5F5F5F5F5F5F5F5F5F5F5F5F5F5F5F5F5F5F5F5F5F5F5F5
310
F5F5F5F5F5F5F5F5F5F5F5F5F5F5F5F5F5F5F5F5F5F5F5F5F5F5F5F5F5F5F5F5F5F5F5F5F5F5F5F5F5F5F5F5F5F5F5F5F5F5F5E2E2F5F5F5F5F5F5F5F5F5F5F5F5F5F5F5F5F5F5F5F5F5F5F5F5F5F5F5F5F5F5F5F5F5F5F5F5F5F5F5F5F5F5F5F5F5F5F5F5F5F5F5F5F5F5F5F5F5F5F5F5F5F5F5F5F5F5F5F5F5F5F5F5F5F5
310
F5F5F5F5F5F5F5F5F5F5F5F5F5F5F5F5F5F5F5F5F5F5F5F5F5F5F5F5F5F5F5F5F5F5F5F5F5F5F5F5F5F5F5F5F5F5F5F5F5F5F5F5F5F5F5F5F5F5F5F5F5F5F5F5F5F5F5F5F5F5F5F5F5F5F5F5F5F5F5F5F5F5F5F5F5F5F5F5F5F5F5F5F5F5F5F5F5F5F5F5F5F5F5F5E2E2F5F5F5F5F5F5F5F5F5F5F5F5F5F5F5F5F5F5F5F5F5
310
F5F5F5F5F5F5F5F5F5F5F5F5F5F5F5F5F5F5F5F5F5F5F5F5F5F5F5F5F5F5F5F5F5F5F5F5F5F5F5F5F5F5F5F5F5F5F5F5F5F5F5F5F5F5F5F5F5F5F5F5F5F5F5F5F5F5F5F5F5F5F5F5F5F5F5F5F5F5F5F5F5F5F5F5F5F5F5F5F5F5F5F5F5F5F5F5F5F5F5F5F5F5F5F5F5F5F5F5F5F5F5F5F5F5F5F5F5F5F5F5F5F5F5F5F5F5F5
310
F5F5F5F5F5F5F5F5F5F5F5F5F5F5F5F5F5F5F5F5F5F5F5F5F5F5F5F5F5F5E2E2F5F5F5F5F5F5F5F5F5F5F5F5F5F5F5F5F5F5F5F5F5F5F5F5F5F5F5F5F5F5F5F5F5F5F5F5F5F5F5F5F5F5F5F5F5F5F5F5F5F5F5F5F5F5F5F5F5F5F5F5F5F5F5F5F5F5F5F5F5F5F5F5F5F5F5F5F5F5F5F5F5F5F5F5F5F5F5F5F5F5F5F5F5F5F5
310
F5F5F5F5F5F5F5F5F5F5F5F5F5F5F5F5F5F5F5F5F5F5F5F5F5F5F5F5F5F5F5F5F5F5F5F5F5F5F5F5F5F5F5F5F5F5F5F5F5F5F5F5F5F5F5F5F5F5F5F5F5F5F5F5F5F5F5F5F5F5F5F5F5F5F5F5F5F5F5F5F5F5F5E2E2F5F5F5F5F5F5F5F5F5F5F5F5F5F5F5F5F5F5F5F5F5F5F5F5F5F5F5F5F5F5F5F5F5F5F5F5F5F5F5F5F5F5
310
F5F5F5F5F5F5F5F5F5F5F5F5F5F5F5F5F5F5F5F5F5F5F5F5F5F5F5F5F5F5F5F5F5F5F5F5F5F5F5F5F5F5F5F5F5F5F5F5F5F5F5F5F5F5F5F5F5F5F5F5F5F5F5F5F5F5F5F5F5F5F5F5F5F5F5F5F5F5F5F5F5F5F5F5F5F5F5F5F5F5F5F5F5F5F5F5F5F5F5F5F5F5F5F5F5F5F5F5F5F5F5F5F5F5F5F5F5F5F5F5F5F5F5F5F5F5F5
310
F5F5F5F5F5F5F5F5F5E2E2F5F5F5F5F5F5F5F5F5F5F5F5F5F5F5F5F5F5F5F5F5F5F5F5F5F5F5F5F5F5F5F5F5F5F5F5F5F5F5F5F5F5F5F5F5F5F5F5F5F5F5F5F5F5F5F5F5F5F5F5F5F5F5F5F5F5F5F5F5F5F5F5F5F5F5F5F5F5F5F5F5F5F5F5F5F5F5F5F5F5F5F5F5F5F5F5F5F5F5F5F5F5F5F5F5F5F5F5F5F5F5F5F5F5F5F5
310
F5F5F5F5F5F5F5F5F5F5F5F5F5F5F5F5F5F5F5F5F5F5F5F5F5F5F5F5F5F5F5F5F5F5F5F5F5F5F5F5F5F5F5F5F5F5F5F5F5F5F5F5F5F5F5F5F5F5F5F5F5F5E2E2F5F5F5F5F5F5F5F5F5F5F5F5F5F5F5F5F5F5F5F5F5F5F5F5F5F5F5F5F5F5F5F5F5F5F5F5F5F5F5F5F5F5F5F5F5F5F5F5F5F5F5F5F5F5F5F5F5F5F5F5F5F5F5
310
F5F5F5F5F5F5F5F5F5F5F5F5F5F5F5F5F5F5F5F5F5F5F5F5F5F5F5F5F5F5F5F5F5F5F5F5F5F5F5F5F5F5F5F5F5F5F5F5F5F5F5F5F5F5F5F5F5F5F5F5F5F5F5F5F5F5F5F5F5F5F5F5F5F5F5F5F5F5F5F5F5F5F5F5F5F5F5F5F5F5F5F5F5F5F5F5F5F5F5F5F5F5F5F5F5F5F5F5F5F5F5F5F5F5F5E2E2F5F5F5F5F5F5F5F5F5F5
310
F5F5F5F5F5F5F5F5F5F5F5F5F5F5F5F5F5F5F5F5F5F5F5F5F5F5F5F5F5F5F5F5F5F5F5F5F5F5F5F5F5F5F5F5F5F5F5F5F5F5F5F5F5F5F5F5F5F5F5F5F5F5F5F5F5F5F5F5F5F5F5F5F5F5F5F5F5F5F5F5F5F5F5F5F5F5F5F5F5F5F5F5F5F5F5F5F5F5F5F5F5F5F5F5F5F5F5F5F5F5F5F5F5F5F5F5F5F5F5F5F5F5F5F5F5F5F5
310
F5F5F5F5F5F5F5F5F5F5F5F5F5F5F5F5F5F5F5F5F5F5F5F5F5F5F5F5F5F5F5F5F5F5F5F5F5F5F5F5F5E2E2F5F5F5F5F5F5F5F5F5F5F5F5F5F5F5F5F5F5F5F5F5F5F5F5F5F5F5F5F5F5F5F5F5F5F5F5F5F5F5F5F5F5F5F5F5F5F5F5F5F5F5F5F5F5F5F5F5F5F5F5F5F5F5F5F5F5F5F5F5F5F5F5F5F5F5F5F5F5F5F5F5F5F5F5
310
F5F5F5F5F5F5F5F5F5F5F5F5F5F5F5F5F5F5F5F5F5F5F5F5F5F5F5F5F5F5F5F5F5F5F5F5F5F5F5F5F5F5F5F5F5F5F5F5F5F5F5F5F5F5F5F5F5F5F5F5F5F5F5F5F5F5F5F5F5F5F5F5F5F5F5F5F5F5F5F5F5F5F5F5F5F5F5F5F5F5F5F5F5F5E2E2F5F5F5E2F5F5F5F5F5F5F5F5F5F5F5F5F5F5F5F5F5F5F5F5F5F5F5F5F5F5F5
310
F5F5F5F5F5F5F5F5F5F5F5F5F5F5F5F5F5F5F5F5F5F5F5F5F5F5F5F5F5F5F5F5F5F5F5F5F5F5F5F5F5F5F5F5F5F5F5F5F5F5F5F5F5F5F5F5F5F5F5F5F5F5F5F5F5F5F5F5F5F5F5F5F5F5F5F5F5F5F5F5F5F5F5F5F5F5F5F5F5F5F5F5F5F5F5F5F5F5F5F5F5F5F5F5F5F5F5F5F5F5F5F5F5F5F5F5F5F5F5F5F5F5F5F5F5F5F5
310
F5F5F5F5F5F5F5F5F5F5F5F5F5F5F5F5E2F5F5F5E2E2F5F5F5E2F5F5F5F5F5F5F5F5F5F5F5F5F5F5F5F5F5F5F5F5F5F5F5F5F5F5F5F5F5F5F5F5F5F5F5F5F5F5F5F5F5F5F5F5F5F5F5F5F5F5F5F5F5F5F5F5F5F5F5F5F5F5F5F5F5F5F5F5F5F5F5F5F5F5F5F5F5F5F5F5F5F5F5F5F5F5F5F5F5F5F5F5F5F5F5F5F5F5F5F5F5
310
F5F5F5F5F5F5F5F5F5F5F5F5F5F5F5F5F5F5F5F5F5F5F5F5F5F5F5F5F5F5F5F5F5F5F5F5F5F5F5F5F5F5F5F5F5F5F5F5F5F5F5F5F5F5F5F5F5F5F5F5F5F5F5F5F5F5F5F5F5E2F5F5F5E2E2F5F5F5E2F5F5F5F5F5F5F5F5F5F5F5F5F5F5F5F5F5F5F5F5F5F5F5F5F5F5F5F5F5F5F5F5F5F5F5F5F5F5F5F5F5F5F5F5F5F5F5F5
310
F5F5F5F5F5F5F5F5F5F5F5F5F5F5F5F5F5F5F5F5F5F5F5F5F5F5F5F5F5F5F5F5F5F5F5F5F5F5F5F5F5F5F5F5F5F5F5F5F5F5F5F5F5F5F5F5F5F5F5F5F5F5F5F5F5F5F5F5F5F5F5F5F5F5F5F5F5F5F5F5F5F5F5F5F5F5F5F5F5F5F5F5F5F5F5F5F5F5F5F5F5F5F5F5F5F5F5F5F5F5F5F5F5F5F5F5F5F5F5F5F5F5E2F5F5F5E2
310
E2F5F5F5E2F5F5F5F5F5F5F5F5F5F5F5F5F5F5F5F5F5F5F5F5F5F5F5F5F5F5F5F5F5F5F5F5F5F5F5F5F5F5F5F5F5F5F5F5F5F5F5F5F5F5F5F5F5F5F5F5F5F5F5F5F5F5F5F5F5F5F5F5F5F5F5F5F5F5F5F5F5F5F5F5F5F5F5F5F5F5F5F5F5F5F5F5F5F5F5F5F5F5F5F5F5F5F5F5F5F5F5F5F5F5F5F5F5F5F5F5F5F5F5F5F5F5
310
F5F5F5F5F5F5F5F5F5F5F5F5F5F5F5F5F5F5F5F5F5F5F5F5F5F5F5F5F5F5F5F5F5F5F5F5F5F5F5F5F5F5F5F5F5F5F5F5E2F5F5F5E2E2F5F5F5E2F5F5F5F5F5F5F5F5F5F5F5F5F5F5F5F5F5F5F5F5F5F5F5F5F5F5F5F5F5F5F5F5F5F5F5F5F5F5F5F5F5F5F5F5F5F5F5F5F5F5F5F5F5F5F5F5F5F5F5F5F5F5F5F5F5F5F5F5F5
310
F5F5F5F5F5F5F5F5F5F5F5F5F5F5F5F5F5F5F5F5F5F5F5F5F5F5F5F5F5F5F5F5F5F5F5F5F5F5F5F5F5F5F5F5F5F5F5F5F5F5F5F5F5F5F5F5F5F5F5F5F5F5F5F5F5F5F5F5F5F5F5F5F5F5F5F5F5F5F5F5F5F5F5F5F5F5F5F5F5F5F5F5F5F5F5F5F5F5F5F5F5E2F5F5F5E2E2F5F5F5E2F5F5F5F5F5F5F5F5F5F5F5F5F5F5F5F5
310
F5F5F5F5F5F5F5F5F5F5F5F5F5F5F5F5F5F5F5F5F5F5F5F5F5F5F5F5F5F5F5F5F5F5F5F5F5F5F5F5F5F5F5F5F5F5F5F5F5F5F5F5F5F5F5F5F5F5F5F5F5F5F5F5F5F5F5F5F5F5F5F5F5F5F5F5F5F5F5F5F5F5F5F5F5F5F5F5F5F5F5F5F5F5F5F5F5F5F5F5F5F5F5F5F5F5F5F5F5F5F5F5F5F5F5F5F5F5F5F5F5F5F5F5F5F5F5
310
F5F5F5F5F5F5F5F5F5F5F5F5F5F5F5F5F5F5F5F5F5F5F5F5F5F5F5E2F5F5F5E2E2F5F5F5E2F5F5F5F5F5F5F5F5F5F5F5F5F5F5F5F5F5F5F5F5F5F5F5F5F5F5F5F5F5F5F5F5F5F5F5F5F5F5F5F5F5F5F5F5F5F5F5F5F5F5F5F5F5F5F5F5F5F5F5F5F5F5F5F5F5F5F5F5F5F5F5F5F5F5F5F5F5F5F5F5F5F5F5F5F5F5F5F5F5F5
310
F5F5F5F5F5F5F5F5F5F5F5F5F5F5F5F5F5F5F5F5F5F5F5F5F5F5F5F5F5F5F5F5F5F5F5F5F5F5F5F5F5F5F5F5F5F5F5F5F5F5F5F5F5F5F5F5F5F5F5F5F5F5F5F5F5F5F5F5F5F5F5F5F5F5F5F5F5F5F5F5E2F5F5F5E2E2F5F5F5E2F5F5F5F5F5F5F5F5F5F5F5F5F5F5F5F5F5F5F5F5F5F5F5F5F5F5F5F5F5F5F5F5F5F5F5F5F5
310
F5F5F5F5F5F5F5F5F5F5F5F5F5F5F5F5F5F5F5F5F5F5F5F5F5F5F5F5F5F5F5F5F5F5F5F5F5F5F5F5F5F5F5F5F5F5F5F5F5F5F5F5F5F5F5F5F5F5F5F5F5F5F5F5F5F5F5F5F5F5F5F5F5F5F5F5F5F5F5F5F5F5F5F5F5F5F5F5F5F5F5F5F5F5F5F5F5F5F5F5F5F5F5F5F5F5F5F5F5F5F5F5F5F5F5F5F5F5F5F5F5F5F5F5F5F5F5
310
F5F5F5F5F5F5E2F5F5F5E2E2F5F5F5E2F5F5F5F5F5F5F5F5F5F5F5F5F5F5F5F5F5F5F5F5F5F5F5F5F5F5F5F5F5F5F5F5F5F5F5F5F5F5F5F5F5F5F5F5F5F5F5F5F5F5F5F5F5F5F5F5F5F5F5F5F5F5F5F5F5F5F5F5F5F5F5F5F5F5F5F5F5F5F5F5F5F5F5F5F5F5F5F5F5F5F5F5F5F5F5F5F5F5F5F5F5F5F5F5F5F5F5F5F5F5F5
310
F5F5F5F5F5F5F5F5F5F5F5F5F5F5F5F5F5F5F5F5F5F5F5F5F5F5F5F5F5F5F5F5F5F5F5F5F5F5F5F5F5F5F5F5F5F5F5F5F5F5F5F5F5F5F5F5F5F5F5E2F5F5F5E2E2F5F5F5E2F5F5F5F5F5F5F5F5F5F5F5F5F5F5F5F5F5F5F5F5F5F5F5F5F5F5F5F5F5F5F5F5F5F5F5F5F5F5F5F5F5F5F5F5F5F5F5F5F5F5F5F5F5F5F5F5F5F5
310
F5F5F5F5F5F5F5F5F5F5F5F5F5F5F5F5F5F5F5F5F5F5F5F5F5F5F5F5F5F5F5F5F5F5F5F5F5F5F5F5F5F5F5F5F5F5F5F5F5F5F5F5F5F5F5F5F5F5F5F5F5F5F5F5F5F5F5F5F5F5F5F5F5F5F5F5F5F5F5F5F5F5F5F5F5F5F5F5F5F5F5F5F5F5F5F5F5F5F5F5F5F5F5F5F5F5F5F5F5F5F5F5E2F5F5F5E2E2F5F5F5E2F5F5F5F5F5
310
F5F5F5F5F5F5F5F5F5F5F5F5F5F5F5F5F5F5F5F5F5F5F5F5F5F5F5F5F5F5F5F5F5F5F5F5F5F5F5F5F5F5F5F5F5F5F5F5F5F5F5F5F5F5F5F5F5F5F5F5F5F5F5F5F5F5F5F5F5F5F5F5F5F5F5F5F5F5F5F5F5F5F5F5F5F5F5F5F5F5F5F5F5F5F5F5F5F5F5F5F5F5F5F5F5F5F5F5F5F5F5F5F5F5F5F5F5F5F5F5F5F5F5F5F5F5F5
310
F5F5F5F5F5F5F5F5F5F5F5F5F5F5F5F5F5F5F5F5F5F5F5F5F5F5F5F5F5F5F5F5F5F5F5F5F5F5E2F5F5F5E2E2F5F5F5E2F5F5F5F5F5F5F5F5F5F5F5F5F5F5F5F5F5F5F5F5F5F5F5F5F5F5F5F5F5F5F5F5F5F5F5F5F5F5F5F5F5F5F5F5F5F5F5F5F5F5F5F5F5F5F5F5F5F5F5F5F5F5F5F5F5F5F5F5F5F5F5F5F5F5F5F5F5F5F5
310
F5F5F5F5F5F5F5F5F5F5F5F5F5F5F5F5F5F5F5F5F5F5F5F5F5F5F5F5F5F5F5F5F5F5F5F5F5F5F5F5F5F5F5F5F5F5F5F5F5F5F5F5F5F5F5F5F5F5F5F5F5F5F5F5F5F5F5F5F5F5F5F5F5F5F5F5F5F5F5F5F5F5F5F5F5F5F5F5F5F5F5E2F5F5F5E2E2F5F5F5E2F5F5F5F5F5F5F5F5F5F5F5F5F5F5F5F5F5F5F5F5F5F5F5F5F5F5
310
F5F5F5F5F5F5F5F5F5F5F5F5F5F5F5F5F5F5F5F5F5F5F5F5F5F5F5F5F5F5F5F5F5F5F5F5F5F5F5F5F5F5F5F5F5F5F5F5F5F5F5F5F5F5F5F5F5F5F5F5F5F5F5F5F5F5F5F5F5F5F5F5F5F5F5F5F5F5F5F5F5F5F5F5F5F5F5F5F5F5F5F5F5F5F5F5F5F5F5F5F5F5F5F5F5F5F5F5F5F5F5F5F5F5F5F5F5F5F5F5F5F5F5F5F5F5F5
310
F5F5F5F5F5F5F5F5F5F5F5F5F5F5F5F5F5E2F5F5F5E2E2F5F5F5E2F5F5F5F5F5F5F5F5F5F5F5F5F5F5F5F5F5F5F5F5F5F5F5F5F5F5F5F5F5F5F5F5F5F5F5F5F5F5F5F5F5F5F5F5F5F5F5F5F5F5F5F5F5F5F5F5F5F5F5F5F5F5F5F5F5F5F5F5F5F5F5F5F5F5F5F5F5F5F5F5F5F5F5F5F5F5F5F5F5F5F5F5F5F5F5F5F5F5F5F5
310
F5F5F5F5F5F5F5F5F5F5F5F5F5F5F5F5F5F5F5F5F5F5F5F5F5F5F5F5F5F5F5F5F5F5F5F5F5F5F5F5F5F5F5F5F5F5F5F5F5F5F5F5F5F5F5F5F5F5F5F5F5F5F5F5F5F5F5F5F5F5E2F5F5F5E2E2F5F5F5E2F5F5F5F5F5F5F5F5F5F5F5F5F5F5F5F5F5F5F5F5F5F5F5F5F5F5F5F5F5F5F5F5F5F5F5F5F5F5F5F5F5F5F5F5F5F5F5
310
F5F5F5F5F5F5F5F5F5F5F5F5F5F5F5F5F5F5F5F5F5F5F5F5F5F5F5F5F5F5F5F5F5F5F5F5F5F5F5F5F5F5F5F5F5F5F5F5F5F5F5F5F5F5F5F5F5F5F5F5F5F5F5F5F5F5F5F5F5F5F5F5F5F5F5F5F5F5F5F5F5F5F5F5F5F5F5F5F5F5F5F5F5F5F5F5F5F5F5F5F5F5F5F5F5F5F5F5F5F5F5F5F5F5F5F5F5F5F5F5F5F5F5E2F5F5F5
310
E2E2F5F5F5F5F5F5F5F5F5F5F5F5F5F5F5F5F5F5F5F5F5F5F5F5F5F5F5F5F5F5F5F5F5F5F5F5F5F5F5F5F5F5F5F5F5F5F5F5F5F5F5F5F5F5F5F5F5F5F5F5F5F5F5F5F5F5F5F5F5F5F5F5F5F5F5F5F5F5F5F5F5F5F5F5F5F5F5F5F5F5F5F5F5F5F5F5F5F5F5F5F5F5F5F5F5F5F5F5F5F5F5F5F5F5F5F5F5F5F5F5F5F5F5F5F5
310
F5F5F5F5F5F5F5F5F5F5F5F5F5F5F5F5F5F5F5F5F5F5F5F5F5F5F5F5F5F5F5F5F5F5F5F5F5F5F5F5F5F5F5F5F5F5F5F5F5F5F5F5F5E2E2F5F5F5F5F5F5F5F5F5F5F5F5F5F5F5F5F5F5F5F5F5F5F5F5F5F5F5F5F5F5F5F5F5F5F5F5F5F5F5F5F5F5F5F5F5F5F5F5F5F5F5F5F5F5F5F5F5F5F5F5F5F5F5F5F5F5F5F5F5F5F5F5
310
F5F5F5F5F5F5F5F5F5F5F5F5F5F5F5F5F5F5F5F5F5F5F5F5F5F5F5F5F5F5F5F5F5F5F5F5F5F5F5F5F5F5F5F5F5F5F5F5F5F5F5F5F5F5F5F5F5F5F5F5F5F5F5F5F5F5F5F5F5F5F5F5F5F5F5F5F5F5F5F5F5F5F5F5F5F5F5F5F5F5F5F5F5F5F5F5F5F5F5F5F5F5F5F5F5F5E2E2F5F5F5F5F5F5F5F5F5F5F5F5F5F5F5F5F5F5F5
310
F5F5F5F5F5F5F5F5F5F5F5F5F5F5F5F5F5F5F5F5F5F5F5F5F5F5F5F5F5F5F5F5F5F5F5F5F5F5F5F5F5F5F5F5F5F5F5F5F5F5F5F5F5F5F5F5F5F5F5F5F5F5F5F5F5F5F5F5F5F5F5F5F5F5F5F5F5F5F5F5F5F5F5F5F5F5F5F5F5F5F5F5F5F5F5F5F5F5F5F5F5F5F5F5F5F5F5F5F5F5F5F5F5F5F5F5F5F5F5F5F5F5F5F5F5F5F5
310
F5F5F5F5F5F5F5F5F5F5F5F5F5F5F5F5F5F5F5F5F5F5F5F5F5F5F5F5F5F5F5F5E2E2F5F5F5F5F5F5F5F5F5F5F5F5F5F5F5F5F5F5F5F5F5F5F5F5F5F5F5F5F5F5F5F5F5F5F5F5F5F5F5F5F5F5F5F5F5F5F5F5F5F5F5F5F5F5F5F5F5F5F5F5F5F5F5F5F5F5F5F5F5F5F5F5F5F5F5F5F5F5F5F5F5F5F5F5F5F5F5F5F5F5F5F5F5
310
F5F5F5F5F5F5F5F5F5F5F5F5F5F5F5F5F5F5F5F5F5F5F5F5F5F5F5F5F5F5F5F5F5F5F5F5F5F5F5F5F5F5F5F5F5F5F5F5F5F5F5F5F5F5F5F5F5F5F5F5F5F5F5F5F5F5F5F5F5F5F5F5F5F5F5F5F5F5F5F5F5F5F5F5F5E2E2F5F5F5F5F5F5F5F5F5F5F5F5F5F5F5F5F5F5F5F5F5F5F5F5F5F5F5F5F5F5F5F5F5F5F5F5F5F5F5F5
310
F5F5F5F5F5F5F5F5F5F5F5F5F5F5F5F5F5F5F5F5F5F5F5F5F5F5F5F5F5F5F5F5F5F5F5F5F5F5F5F5F5F5F5F5F5F5F5F5F5F5F5F5F5F5F5F5F5F5F5F5F5F5F5F5F5F5F5F5F5F5F5F5F5F5F5F5F5F5F5F5F5F5F5F5F5F5F5F5F5F5F5F5F5F5F5F5F5F5F5F5F5F5F5F5F5F5F5F5F5F5F5F5F5F5F5F5F5F5F5F5F5F5F5F5F5F5F5
310
F5F5F5F5F5F5F5F5F5F5F5E2E2F5F5F5F5F5F5F5F5F5F5F5F5F5F5F5F5F5F5F5F5F5F5F5F5F5F5F5F5F5F5F5F5F5F5F5F5F5F5F5F5F5F5F5F5F5F5F5F5F5F5F5F5F5F5F5F5F5F5F5F5F5F5F5F5F5F5F5F5F5F5F5F5F5F5F5F5F5F5F5F5F5F5F5F5F5F5F5F5F5F5F5F5F5F5F5F5F5F5F5F5F5F5F5F5F5F5F5F5F5F5F5F5F5F5
310
F5F5F5F5F5F5F5F5F5F5F5F5F5F5F5F5F5F5F5F5F5F5F5F5F5F5F5F5F5F5F5F5F5F5F5F5F5F5F5F5F5F5F5F5F5F5F5F5F5F5F5F5F5F5F5F5F5F5F5F5F5F5F5F5E2E2F5F5F5F5F5F5F5F5F5F5F5F5F5F5F5F5F5F5F5F5F5F5F5F5F5F5F5F5F5F5F5F5F5F5F5F5F5F5F5F5F5F5F5F5F5F5F5F5F5F5F5F5F5F5F5F5F5F5F5F5F5
310
F5F5F5F5F5F5F5F5F5F5F5F5F5F5F5F5F5F5F5F5F5F5F5F5F5F5F5F5F5F5F5F5F5F5F5F5F5F5F5F5F5F5F5F5F5F5F5F5F5F5F5F5F5F5F5F5F5F5F5F5F5F5F5F5F5F5F5F5F5F5F5F5F5F5F5F5F5F5F5F5F5F5F5F5F5F5F5F5F5F5F5F5F5F5F5F5F5F5F5F5F5F5F5F5F5F5F5F5F5F5F5F5F5F5F5F5F5E2E2F5F5F5F5F5F5F5F5
310
F5F5F5F5F5F5F5F5F5F5F5F5F5F5F5F5F5F5F5F5F5F5F5F5F5F5F5F5F5F5F5F5F5F5F5F5F5F5F5F5F5F5F5F5F5F5F5F5F5F5F5F5F5F5F5F5F5F5F5F5F5F5F5F5F5F5F5F5F5F5F5F5F5F5F5F5F5F5F5F5F5F5F5F5F5F5F5F5F5F5F5F5F5F5F5F5F5F5F5F5F5F5F5F5F5F5F5F5F5F5F5F5F5F5F5F5F5F5F5F5F5F5F5F5F5F5F5
310
F5F5F5F5F5F5F5F5F5F5F5F5F5F5F5F5F5F5F5F5F5F5F5F5F5F5F5F5F5F5F5F5F5F5F5F5F5F5F5F5F5F5F5E2E2F5F5F5E2F5F5F5F5F5F5F5F5F5F5F5F5F5F5F5F5F5F5F5F5F5F5F5F5F5F5F5F5F5F5F5F5F5F5F5F5F5F5F5F5F5F5F5F5F5F5F5F5F5F5F5F5F5F5F5F5F5F5F5F5F5F5F5F5F5F5F5F5F5F5F5F5F5F5F5F5F5F5
310
F5F5F5F5F5F5F5F5F5F5F5F5F5F5F5F5F5F5F5F5F5F5F5F5F5F5F5F5F5F5F5F5F5F5F5F5F5F5F5F5F5F5F5F5F5F5F5F5F5F5F5F5F5F5F5F5F5F5F5F5F5F5F5F5F5F5F5F5F5F5F5F5F5F5F5F5F5F5F5F5F5F5F5F5F5F5F5F5F5F5F5F5E2F5F5F5E2E2F5F5F5E2F5F5F5F5F5F5F5F5F5F5F5F5F5F5F5F5F5F5F5F5F5F5F5F5F5
310
F5F5F5F5F5F5F5F5F5F5F5F5F5F5F5F5F5F5F5F5F5F5F5F5F5F5F5F5F5F5F5F5F5F5F5F5F5F5F5F5F5F5F5F5F5F5F5F5F5F5F5F5F5F5F5F5F5F5F5F5F5F5F5F5F5F5F5F5F5F5F5F5F5F5F5F5F5F5F5F5F5F5F5F5F5F5F5F5F5F5F5F5F5F5F5F5F5F5F5F5F5F5F5F5F5F5F5F5F5F5F5F5F5F5F5F5F5F5F5F5F5F5F5F5F5F5F5
310
F5F5F5F5F5F5F5F5F5F5F5F5F5F5F5F5F5F5E2F5F5F5E2E2F5F5F5E2F5F5F5F5F5F5F5F5F5F5F5F5F5F5F5F5F5F5F5F5F5F5F5F5F5F5F5F5F5F5F5F5F5F5F5F5F5F5F5F5F5F5F5F5F5F5F5F5F5F5F5F5F5F5F5F5F5F5F5F5F5F5F5F5F5F5F5F5F5F5F5F5F5F5F5F5F5F5F5F5F5F5F5F5F5F5F5F5F5F5F5F5F5F5F5F5F5F5F5
310
F5F5F5F5F5F5F5F5F5F5F5F5F5F5F5F5F5F5F5F5F5F5F5F5F5F5F5F5F5F5F5F5F5F5F5F5F5F5F5F5F5F5F5F5F5F5F5F5F5F5F5F5F5F5F5F5F5F5F5F5F5F5F5F5F5F5F5F5F5F5F5E2F5F5F5E2E2F5F5F5E2F5F5F5F5F5F5F5F5F5F5F5F5F5F5F5F5F5F5F5F5F5F5F5F5F5F5F5F5F5F5F5F5F5F5F5F5F5F5F5F5F5F5F5F5F5F5
310
F5F5F5F5F5F5F5F5F5F5F5F5F5F5F5F5F5F5F5F5F5F5F5F5F5F5F5F5F5F5F5F5F5F5F5F5F5F5F5F5F5F5F5F5F5F5F5F5F5F5F5F5F5F5F5F5F5F5F5F5F5F5F5F5F5F5F5F5F5F5F5F5F5F5F5F5F5F5F5F5F5F5F5F5F5F5F5F5F5F5F5F5F5F5F5F5F5F5F5F5F5F5F5F5F5F5F5F5F5F5F5F5F5F5F5F5F5F5F5F5F5F5F5F5E2F5F5
310
F5E2E2F5F5F5E2F5F5F5F5F5F5F5F5F5F5F5F5F5F5F5F5F5F5F5F5F5F5F5F5F5F5F5F5F5F5F5F5F5F5F5F5F5F5F5F5F5F5F5F5F5F5F5F5F5F5F5F5F5F5F5F5F5F5F5F5F5F5F5F5F5F5F5F5F5F5F5F5F5F5F5F5F5F5F5F5F5F5F5F5F5F5F5F5F5F5F5F5F5F5F5F5F5F5F5F5F5F5F5F5F5F5F5F5F5F5F5F5F5F5F5F5F5F5F5F5
310
F5F5F5F5F5F5F5F5F5F5F5F5F5F5F5F5F5F5F5F5F5F5F5F5F5F5F5F5F5F5F5F5F5F5F5F5F5F5F5F5F5F5F5F5F5F5F5F5F5F5E2F5F5F5E2E2F5F5F5E2F5F5F5F5F5F5F5F5F5F5F5F5F5F5F5F5F5F5F5F5F5F5F5F5F5F5F5F5F5F5F5F5F5F5F5F5F5F5F5F5F5F5F5F5F5F5F5F5F5F5F5F5F5F5F5F5F5F5F5F5F5F5F5F5F5F5F5
310
F5F5F5F5F5F5F5F5F5F5F5F5F5F5F5F5F5F5F5F5F5F5F5F5F5F5F5F5F5F5F5F5F5F5F5F5F5F5F5F5F5F5F5F5F5F5F5F5F5F5F5F5F5F5F5F5F5F5F5F5F5F5F5F5F5F5F5F5F5F5F5F5F5F5F5F5F5F5F5F5F5F5F5F5F5F5F5F5F5F5F5F5F5F5F5F5F5F5F5F5F5F5F5E2F5F5F5E2E2F5F5F5E2F5F5F5F5F5F5F5F5F5F5F5F5F5F5
310
F5F5F5F5F5F5F5F5F5F5F5F5F5F5F5F5F5F5F5F5F5F5F5F5F5F5F5F5F5F5F5F5F5F5F5F5F5F5F5F5F5F5F5F5F5F5F5F5F5F5F5F5F5F5F5F5F5F5F5F5F5F5F5F5F5F5F5F5F5F5F5F5F5F5F5F5F5F5F5F5F5F5F5F5F5F5F5F5F5F5F5F5F5F5F5F5F5F5F5F5F5F5F5F5F5F5F5F5F5F5F5F5F5F5F5F5F5F5F5F5F5F5F5F5F5F5F5
310
F5F5F5F5F5F5F5F5F5F5F5F5F5F5F5F5F5F5F5F5F5F5F5F5F5F5F5F5F5E2F5F5F5E2E2F5F5F5E2F5F5F5F5F5F5F5F5F5F5F5F5F5F5F5F5F5F5F5F5F5F5F5F5F5F5F5F5F5F5F5F5F5F5F5F5F5F5F5F5F5F5F5F5F5F5F5F5F5F5F5F5F5F5F5F5F5F5F5F5F5F5F5F5F5F5F5F5F5F5F5F5F5F5F5F5F5F5F5F5F5F5F5F5F5F5F5F5
310
F5F5F5F5F5F5F5F5F5F5F5F5F5F5F5F5F5F5F5F5F5F5F5F5F5F5F5F5F5F5F5F5F5F5F5F5F5F5F5F5F5F5F5F5F5F5F5F5F5F5F5F5F5F5F5F5F5F5F5F5F5F5F5F5F5F5F5F5F5F5F5F5F5F5F5F5F5F5F5F5F5F5E2F5F5F5E2E2F5F5F5E2F5F5F5F5F5F5F5F5F5F5F5F5F5F5F5F5F5F5F5F5F5F5F5F5F5F5F5F5F5F5F5F5F5F5F5
310
F5F5F5F5F5F5F5F5F5F5F5F5F5F5F5F5F5F5F5F5F5F5F5F5F5F5F5F5F5F5F5F5F5F5F5F5F5F5F5F5F5F5F5F5F5F5F5F5F5F5F5F5F5F5F5F5F5F5F5F5F5F5F5F5F5F5F5F5F5F5F5F5F5F5F5F5F5F5F5F5F5F5F5F5F5F5F5F5F5F5F5F5F5F5F5F5F5F5F5F5F5F5F5F5F5F5F5F5F5F5F5F5F5F5F5F5F5F5F5F5F5F5F5F5F5F5F5
310
F5F5F5F5F5F5F5F5E2F5F5F5E2E2F5F5F5E2F5F5F5F5F5F5F5F5F5F5F5F5F5F5F5F5F5F5F5F5F5F5F5F5F5F5F5F5F5F5F5F5F5F5F5F5F5F5F5F5F5F5F5F5F5F5F5F5F5F5F5F5F5F5F5F5F5F5F5F5F5F5F5F5F5F5F5F5F5F5F5F5F5F5F5F5F5F5F5F5F5F5F5F5F5F5F5F5F5F5F5F5F5F5F5F5F5F5F5F5F5F5F5F5F5F5F5F5F5
310
F5F5F5F5F5F5F5F5F5F5F5F5F5F5F5F5F5F5F5F5F5F5F5F5F5F5F5F5F5F5F5F5F5F5F5F5F5F5F5F5F5F5F5F5F5F5F5F5F5F5F5F5F5F5F5F5F5F5F5F5F5E2F5F5F5E2E2F5F5F5E2F5F5F5F5F5F5F5F5F5F5F5F5F5F5F5F5F5F5F5F5F5F5F5F5F5F5F5F5F5F5F5F5F5F5F5F5F5F5F5F5F5F5F5F5F5F5F5F5F5F5F5F5F5F5F5F5
310
F5F5F5F5F5F5F5F5F5F5F5F5F5F5F5F5F5F5F5F5F5F5F5F5F5F5F5F5F5F5F5F5F5F5F5F5F5F5F5F5F5F5F5F5F5F5F5F5F5F5F5F5F5F5F5F5F5F5F5F5F5F5F5F5F5F5F5F5F5F5F5F5F5F5F5F5F5F5F5F5F5F5F5F5F5F5F5F5F5F5F5F5F5F5F5F5F5F5F5F5F5F5F5F5F5F5F5F5F5F5F5F5F5F5E2F5F5F5E2E2F5F5F5E2F5F5F5
310
F5F5F5F5F5F5F5F5F5F5F5F5F5F5F5F5F5F5F5F5F5F5F5F5F5F5F5F5F5F5F5F5F5F5F5F5F5F5F5F5F5F5F5F5F5F5F5F5F5F5F5F5F5F5F5F5F5F5F5F5F5F5F5F5F5F5F5F5F5F5F5F5F5F5F5F5F5F5F5F5F5F5F5F5F5F5F5F5F5F5F5F5F5F5F5F5F5F5F5F5F5F5F5F5F5F5F5F5F5F5F5F5F5F5F5F5F5F5F5F5F5F5F5F5F5F5F5
310
F5F5F5F5F5F5F5F5F5F5F5F5F5F5F5F5F5F5F5F5F5F5F5F5F5F5F5F5F5F5F5F5F5F5F5F5F5F5F5F5E2F5F5F5E2E2F5F5F5E2F5F5F5F5F5F5F5F5F5F5F5F5F5F5F5F5F5F5F5F5F5F5F5F5F5F5F5F5F5F5F5F5F5F5F5F5F5F5F5F5F5F5F5F5F5F5F5F5F5F5F5F5F5F5F5F5F5F5F5F5F5F5F5F5F5F5F5F5F5F5F5F5F5F5F5F5F5
310
F5F5F5F5F5F5F5F5F5F5F5F5F5F5F5F5F5F5F5F5F5F5F5F5F5F5F5F5F5F5F5F5F5F5F5F5F5F5F5F5F5F5F5F5F5F5F5F5F5F5F5F5F5F5F5F5F5F5F5F5F5F5F5F5F5F5F5F5F5F5F5F5F5F5F5F5F5F5F5F5F5F5F5F5F5F5F5F5F5F5F5F5F5E2F5F5F5E2E2F5F5F5E2F5F5F5F5F5F5F5F5F5F5F5F5F5F5F5F5F5F5F5F5F5F5F5F5
310
F5F5F5F5F5F5F5F5F5F5F5F5F5F5F5F5F5F5F5F5F5F5F5F5F5F5F5F5F5F5F5F5F5F5F5F5F5F5F5F5F5F5F5F5F5F5F5F5F5F5F5F5F5F5F5F5F5F5F5F5F5F5F5F5F5F5F5F5F5F5F5F5F5F5F5F5F5F5F5F5F5F5F5F5F5F5F5F5F5F5F5F5F5F5F5F5F5F5F5F5F5F5F5F5F5F5F5F5F5F5F5F5F5F5F5F5F5F5F5F5F5F5F5F5F5F5F5
310
F5F5F5F5F5F5F5F5F5F5F5F5F5F5F5F5F5F5F5E2F5F5F5E2E2F5F5F5E2F5F5F5F5F5F5F5F5F5F5F5F5F5F5F5F5F5F5F5F5F5F5F5F5F5F5F5F5F5F5F5F5F5F5F5F5F5F5F5F5F5F5F5F5F5F5F5F5F5F5F5F5F5F5F5F5F5F5F5F5F5F5F5F5F5F5F5F5F5F5F5F5F5F5F5F5F5F5F5F5F5F5F5F5F5F5F5F5F5F5F5F5F5F5F5F5F5F5
310
F5F5F5F5F5F5F5F5F5F5F5F5F5F5F5F5F5F5F5F5F5F5F5F5F5F5F5F5F5F5F5F5F5F5F5F5F5F5F5F5F5F5F5F5F5F5F5F5F5F5F5F5F5F5F5F5F5F5F5F5F5F5F5F5F5F5F5F5F5F5F5F5E2F5F5F5E2E2F5F5F5F5F5F5F5F5F5F5F5F5F5F5F5F5F5F5F5F5F5F5F5F5F5F5F5F5F5F5F5F5F5F5F5F5F5F5F5F5F5F5F5F5F5F5F5F5F5
310
F5F5F5F5F5F5F5F5F5F5F5F5F5F5F5F5F5F5F5F5F5F5F5F5F5F5F5F5F5F5F5F5F5F5F5F5F5F5F5F5F5F5F5F5F5F5F5F5F5F5F5F5F5F5F5F5F5F5F5F5F5F5F5F5F5F5F5F5F5F5F5F5F5F5F5F5F5F5F5F5F5F5F5F5F5F5F5F5F5F5F5F5F5F5F5F5F5F5F5F5F5F5F5F5F5F5F5F5F5F5F5F5F5F5F5F5F5F5F5F5F5F5F5F5F5F5F5
310
F5F5E2E2F5F5F5F5F5F5F5F5F5F5F5F5F5F5F5F5F5F5F5F5F5F5F5F5F5F5F5F5F5F5F5F5F5F5F5F5F5F5F5F5F5F5F5F5F5F5F5F5F5F5F5F5F5F5F5F5F5F5F5F5F5F5F5F5F5F5F5F5F5F5F5F5F5F5F5F5F5F5F5F5F5F5F5F5F5F5F5F5F5F5F5F5F5F5F5F5F5F5F5F5F5F5F5F5F5F5F5F5F5F5F5F5F5F5F5F5F5F5F5F5F5F5F5
310
F5F5F5F5F5F5F5F5F5F5F5F5F5F5F5F5F5F5F5F5F5F5F5F5F5F5F5F5F5F5F5F5F5F5F5F5F5F5F5F5F5F5F5F5F5F5F5F5F5F5F5F5F5F5F5E2E2F5F5F5F5F5F5F5F5F5F5F5F5F5F5F5F5F5F5F5F5F5F5F5F5F5F5F5F5F5F5F5F5F5F5F5F5F5F5F5F5F5F5F5F5F5F5F5F5F5F5F5F5F5F5F5F5F5F5F5F5F5F5F5F5F5F5F5F5F5F5
310
F5F5F5F5F5F5F5F5F5F5F5F5F5F5F5F5F5F5F5F5F5F5F5F5F5F5F5F5F5F5F5F5F5F5F5F5F5F5F5F5F5F5F5F5F5F5F5F5F5F5F5F5F5F5F5F5F5F5F5F5F5F5F5F5F5F5F5F5F5F5F5F5F5F5F5F5F5F5F5F5F5F5F5F5F5F5F5F5F5F5F5F5F5F5F5F5F5F5F5F5F5F5F5F5F5F5F5F5E2E2F5F5F5F5F5F5F5F5F5F5F5F5F5F5F5F5F5
310
F5F5F5F5F5F5F5F5F5F5F5F5F5F5F5F5F5F5F5F5F5F5F5F5F5F5F5F5F5F5F5F5F5F5F5F5F5F5F5F5F5F5F5F5F5F5F5F5F5F5F5F5F5F5F5F5F5F5F5F5F5F5F5F5F5F5F5F5F5F5F5F5F5F5F5F5F5F5F5F5F5F5F5F5F5F5F5F5F5F5F5F5F5F5F5F5F5F5F5F5F5F5F5F5F5F5F5F5F5F5F5F5F5F5F5F5F5F5F5F5F5F5F5F5F5F5F5
310
F5F5F5F5F5F5F5F5F5F5F5F5F5F5F5F5F5F5F5F5F5F5F5F5F5F5F5F5F5F5F5F5F5F5E2E2F5F5F5F5F5F5F5F5F5F5F5F5F5F5F5F5F5F5F5F5F5F5F5F5F5F5F5F5F5F5F5F5F5F5F5F5F5F5F5F5F5F5F5F5F5F5F5F5F5F5F5F5F5F5F5F5F5F5F5F5F5F5F5F5F5F5F5F5F5F5F5F5F5F5F5F5F5F5F5F5F5F5F5F5F5F5F5F5F5F5F5
310
F5F5F5F5F5F5F5F5F5F5F5F5F5F5F5F5F5F5F5F5F5F5F5F5F5F5F5F5F5F5F5F5F5F5F5F5F5F5F5F5F5F5F5F5F5F5F5F5F5F5F5F5F5F5F5F5F5F5F5F5F5F5F5F5F5F5F5F5F5F5F5F5F5F5F5F5F5F5F5F5F5F5F5F5F5F5F5E2E2F5F5F5F5F5F5F5F5F5F5F5F5F5F5F5F5F5F5F5F5F5F5F5F5F5F5F5F5F5F5F5F5F5F5F5F5F5F5
310
F5F5F5F5F5F5F5F5F5F5F5F5F5F5F5F5F5F5F5F5F5F5F5F5F5F5F5F5F5F5F5F5F5F5F5F5F5F5F5F5F5F5F5F5F5F5F5F5F5F5F5F5F5F5F5F5F5F5F5F5F5F5F5F5F5F5F5F5F5F5F5F5F5F5F5F5F5F5F5F5F5F5F5F5F5F5F5F5F5F5F5F5F5F5F5F5F5F5F5F5F5F5F5F5F5F5F5F5F5F5F5F5F5F5F5F5F5F5F5F5F5F5F5F5F5F5F5
310
F5F5F5F5F5F5F5F5F5F5F5F5F5E2E2F5F5F5F5F5F5F5F5F5F5F5F5F5F5F5F5F5F5F5F5F5F5F5F5F5F5F5F5F5F5F5F5F5F5F5F5F5F5F5F5F5F5F5F5F5F5F5F5F5F5F5F5F5F5F5F5F5F5F5F5F5F5F5F5F5F5F5F5F5F5F5F5F5F5F5F5F5F5F5F5F5F5F5F5F5F5F5F5F5F5F5F5F5F5F5F5F5F5F5F5F5F5F5F5F5F5F5F5F5F5F5F5
310
F5F5F5F5F5F5F5F5F5F5F5F5F5F5F5F5F5F5F5F5F5F5F5F5F5F5F5F5F5F5F5F5F5F5F5F5F5F5F5F5F5F5F5F5F5F5F5F5F5F5F5F5F5F5F5F5F5F5F5F5F5F5F5F5F5F5E2E2F5F5F5F5F5F5F5F5F5F5F5F5F5F5F5F5F5F5F5F5F5F5F5F5F5F5F5F5F5F5F5F5F5F5F5F5F5F5F5F5F5F5F5F5F5F5F5F5F5F5F5F5F5F5F5F5F5F5F5
310
F5F5F5F5F5F5F5F5F5F5F5F5F5F5F5F5F5F5F5F5F5F5F5F5F5F5F5F5F5F5F5F5F5F5F5F5F5F5F5F5F5F5F5F5F5F5F5F5F5F5F5F5F5F5F5F5F5F5F5F5F5F5F5F5F5F5F5F5F5F5F5F5F5F5F5F5F5F5F5F5F5F5F5F5F5F5F5F5F5F5F5F5F5F5F5F5F5F5F5F5F5F5F5F5F5F5F5F5F5F5F5F5F5F5F5F5F5F5F5E2E2F5F5F5F5F5F5
310
F5F5F5F5F5F5F5F5F5F5F5F5F5F5F5F5F5F5F5F5F5F5F5F5F5F5F5F5F5F5F5F5F5F5F5F5F5F5F5F5F5F5F5F5F5F5F5F5F5F5F5F5F5F5F5F5F5F5F5F5F5F5F5F5F5F5F5F5F5F5F5F5F5F5F5F5F5F5F5F5F5F5F5F5F5F5F5F5F5F5F5F5F5F5F5F5F5F5F5F5F5F5F5F5F5F5F5F5F5F5F5F5F5F5F5F5F5F5F5F5F5F5F5F5F5F5F5
310
F5F5F5F5F5F5F5F5F5F5F5F5F5F5F5F5F5F5F5F5F5F5F5F5F5F5F5F5F5F5F5F5F5F5F5F5F5F5F5F5F5F5F5F5F5E2E2F5F5F5E2F5F5F5F5F5F5F5F5F5F5F5F5F5F5F5F5F5F5F5F5F5F5F5F5F5F5F5F5F5F5F5F5F5F5F5F5F5F5F5F5F5F5F5F5F5F5F5F5F5F5F5F5F5F5F5F5F5F5F5F5F5F5F5F5F5F5F5F5F5F5F5F5F5F5F5F5
310
F5F5F5F5F5F5F5F5F5F5F5F5F5F5F5F5F5F5F5F5F5F5F5F5F5F5F5F5F5F5F5F5F5F5F5F5F5F5F5F5F5F5F5F5F5F5F5F5F5F5F5F5F5F5F5F5F5F5F5F5F5F5F5F5F5F5F5F5F5F5F5F5F5F5F5F5F5F5F5F5F5F5F5F5F5F5F5F5F5F5F5F5F5F5E2F5F5F5E2E2F5F5F5E2F5F5F5F5F5F5F5F5F5F5F5F5F5F5F5F5F5F5F5F5F5F5F5
310
F5F5F5F5F5F5F5F5F5F5F5F5F5F5F5F5F5F5F5F5F5F5F5F5F5F5F5F5F5F5F5F5F5F5F5F5F5F5F5F5F5F5F5F5F5F5F5F5F5F5F5F5F5F5F5F5F5F5F5F5F5F5F5F5F5F5F5F5F5F5F5F5F5F5F5F5F5F5F5F5F5F5F5F5F5F5F5F5F5F5F5F5F5F5F5F5F5F5F5F5F5F5F5F5F5F5F5F5F5F5F5F5F5F5F5F5F5F5F5F5F5F5F5F5F5F5F5
310
F5F5F5F5F5F5F5F5F5F5F5F5F5F5F5F5F5F5F5F5E2F5F5F5E2E2F5F5F5E2F5F5F5F5F5F5F5F5F5F5F5F5F5F5F5F5F5F5F5F5F5F5F5F5F5F5F5F5F5F5F5F5F5F5F5F5F5F5F5F5F5F5F5F5F5F5F5F5F5F5F5F5F5F5F5F5F5F5F5F5F5F5F5F5F5F5F5F5F5F5F5F5F5F5F5F5F5F5F5F5F5F5F5F5F5F5F5F5F5F5F5F5F5F5F5F5F5
310
F5F5F5F5F5F5F5F5F5F5F5F5F5F5F5F5F5F5F5F5F5F5F5F5F5F5F5F5F5F5F5F5F5F5F5F5F5F5F5F5F5F5F5F5F5F5F5F5F5F5F5F5F5F5F5F5F5F5F5F5F5F5F5F5F5F5F5F5F5F5F5F5F5E2F5F5F5E2E2F5F5F5E2F5F5F5F5F5F5F5F5F5F5F5F5F5F5F5F5F5F5F5F5F5F5F5F5F5F5F5F5F5F5F5F5F5F5F5F5F5F5F5F5F5F5F5F5
310
F5F5F5F5F5F5F5F5F5F5F5F5F5F5F5F5F5F5F5F5F5F5F5F5F5F5F5F5F5F5F5F5F5F5F5F5F5F5F5F5F5F5F5F5F5F5F5F5F5F5F5F5F5F5F5F5F5F5F5F5F5F5F5F5F5F5F5F5F5F5F5F5F5F5F5F5F5F5F5F5F5F5F5F5F5F5F5F5F5F5F5F5F5F5F5F5F5F5F5F5F5F5F5F5F5F5F5F5F5F5F5F5F5F5F5F5F5F5F5F5F5F5F5F5F5F5E2
310
F5F5F5E2E2F5F5F5E2F5F5F5F5F5F5F5F5F5F5F5F5F5F5F5F5F5F5F5F5F5F5F5F5F5F5F5F5F5F5F5F5F5F5F5F5F5F5F5F5F5F5F5F5F5F5F5F5F5F5F5F5F5F5F5F5F5F5F5F5F5F5F5F5F5F5F5F5F5F5F5F5F5F5F5F5F5F5F5F5F5F5F5F5F5F5F5F5F5F5F5F5F5F5F5F5F5F5F5F5F5F5F5F5F5F5F5F5F5F5F5F5F5F5F5F5F5F5
310
F5F5F5F5F5F5F5F5F5F5F5F5F5F5F5F5F5F5F5F5F5F5F5F5F5F5F5F5F5F5F5F5F5F5F5F5F5F5F5F5F5F5F5F5F5F5F5F5F5F5F5F5E2F5F5F5E2E2F5F5F5E2F5F5F5F5F5F5F5F5F5F5F5F5F5F5F5F5F5F5F5F5F5F5F5F5F5F5F5F5F5F5F5F5F5F5F5F5F5F5F5F5F5F5F5F5F5F5F5F5F5F5F5F5F5F5F5F5F5F5F5F5F5F5F5F5F5
310
F5F5F5F5F5F5F5F5F5F5F5F5F5F5F5F5F5F5F5F5F5F5F5F5F5F5F5F5F5F5F5F5F5F5F5F5F5F5F5F5F5F5F5F5F5F5F5F5F5F5F5F5F5F5F5F5F5F5F5F5F5F5F5F5F5F5F5F5F5F5F5F5F5F5F5F5F5F5F5F5F5F5F5F5F5F5F5F5F5F5F5F5F5F5F5F5F5F5F5F5F5F5F5F5F5E2F5F5F5E2E2F5F5F5E2F5F5F5F5F5F5F5F5F5F5F5F5
310
F5F5F5F5F5F5F5F5F5F5F5F5F5F5F5F5F5F5F5F5F5F5F5F5F5F5F5F5F5F5F5F5F5F5F5F5F5F5F5F5F5F5F5F5F5F5F5F5F5F5F5F5F5F5F5F5F5F5F5F5F5F5F5F5F5F5F5F5F5F5F5F5F5F5F5F5F5F5F5F5F5F5F5F5F5F5F5F5F5F5F5F5F5F5F5F5F5F5F5F5F5F5F5F5F5F5F5F5F5F5F5F5F5F5F5F5F5F5F5F5F5F5F5F5F5F5F5
310
F5F5F5F5F5F5F5F5F5F5F5F5F5F5F5F5F5F5F5F5F5F5F5F5F5F5F5F5F5F5F5E2F5F5F5E2E2F5F5F5E2E2E2E2E2E2E2E2F5F5F5F5F5F5F5F5F5E2E2E2E2E2E2E2E2E2E2E2E2E2E2E2E2F5F5F5F5F5F5F5F5F5E2E2E2E2E2E2E2E2E2E2E2E2E2E2E2F5F5F5F5F5F5F5F5F5E2E2E2E2E2E2E2E2E2E2E2E2E2E2E2E2F5F5F5F5F5
310
F5F5F5E2E2E2E2E2E2E2E2E2E2E2E2E2E2E2E2F5F5F5F5F5F5F5F5F5E2E2E2E2E2E2E2E2E2E2E2E2E2E2E2F5F5F5F5F5F5F5F5F5E2E2E2E2E2E2E2E2E2E2E2E2E2E2E2E2F5F5F5F5F5F5F5F5F5E2E2E2E2E2E2E2E2F5F5F5E2E2F5F5F5F5F5F5F5F5F5F5F5F5F5F5F5F5F5F5F5F5F5F5F5F5F5F5F5F5F5F5F5F5F5F5F5F5F5
310
F5F5F5F5F5F5F5F5F5F5F5F5F5F5F5F5F5F5F5F5F5F5F5F5F5F5F5F5F5F5F5F5F5F5F5F5F5F5F5F5F5F5F5F5F5F5F5F5F5F5F5F5F5F5F5F5F5F5F5F5F5F5F5F5F5F5F5F5F5F5F5F5F5F5F5F5F5F5F5F5F5F5F5F5F5F5F5F5F5F5F5F5F5F5F5F5F5F5F5F5F5F5F5F5F5F5F5F5F5F5F5F5F5F5F5F5F5F5F5F5F5F5F5F5F5F5F5
310
F5F5F5F5F5F5F5F5F5F5F5F5F5F5E2E2F5F5F5F5F5F5F5F5F5F5F5F5F5F5F5F5F5F5F5F5F5F5F5F5F5F5F5F5F5F5F5F5F5F5F5F5F5F5F5F5F5F5F5F5F5F5F5F5F5F5F5F5F5F5F5F5F5F5F5F5F5F5F5F5F5F5F5F5F5F5F5F5F5F5F5F5F5F5F5F5F5F5F5F5F5F5F5F5F5F5F5F5F5F5F5F5F5F5F5F5F5F5F5F5F5F5F5F5F5F5F5
310
F5F5F5F5F5F5F5F5F5F5F5F5F5F5F5F5F5F5F5F5F5F5F5F5F5F5F5F5F5F5F5F5F5F5F5F5F5F5F5F5F5F5F5F5F5F5F5F5F5F5F5F5F5F5F5F5F5F5F5F5F5F5F5F5F5F5F5E2E2F5F5F5F5F5F5F5F5F5F5F5F5F5F5F5F5F5F5F5F5F5F5F5F5F5F5F5F5F5F5F5F5F5F5F5F5F5F5F5F5F5F5F5F5F5F5F5F5F5F5F5F5F5F5F5F5F5F5
310
F5F5F5F5F5F5F5F5F5F5F5F5F5F5F5F5F5F5F5F5F5F5F5F5F5F5F5F5F5F5F5F5F5F5F5F5F5F5F5F5F5F5F5F5F5F5F5F5F5F5F5F5F5F5F5F5F5F5F5F5F5F5F5F5F5F5F5F5F5F5F5F5F5F5F5F5F5F5F5F5F5F5F5F5F5F5F5F5F5F5F5F5F5F5F5F5F5F5F5F5F5F5F5F5F5F5F5F5F5F5F5F5F5F5F5F5F5F5F5F5E2EFE2E2E2E2E2
310
E2E2E2E2E2E2E2E2E2E2E2E2E2E2E2E2E2E2E2E2E2E2E2E2E2E2E2E2E2E2E2E2E2E2E2E2E2E2E2E2E2E2E2E2E2E2E2E2E2E2E2E2E2E2E2E2E2E2E2E2E2E2E2E2E2E2E2E2E2E2E2E2E2E2E2E2E2E2E2E2E2E2E2E2E2E2E2E2E2E2E2E2E2E2E2E2E2E2E2E2E2E2E2E2E2E2E2E2E2E2E2E2E2E2E2E2E2E2E2E2E2E2E2E2E2E2E2
310
E2E2E2E2E2E2E2E2E2E2E2E2E2E2E2E2E2E2E2E2E2E2E2E2E2E2E2E2E2E2E2E2E2E2E2E2E2E2E2E2E2E2E2E2E2E2E2EF
  0
XRECORD
  5
D919
102
{ACAD_REACTORS
330
D918
102
}
330
D918
100
AcDbXrecord
280
     1
102
MATERIAL
148
0.0
149
0.0
149
0.0
 93
        0
 94
       63
282
     0
 72
     1
 77
     1
171
     1
175
     1
179
     1
273
     0
  0
XRECORD
  5
D917
102
{ACAD_REACTORS
330
D916
102
}
330
D916
100
AcDbXrecord
280
     1
102
MATERIAL
148
0.0
149
0.0
149
0.0
 93
        0
 94
       63
282
     0
 72
     1
 77
     1
171
     1
175
     1
179
     1
273
     0
  0
XRECORD
  5
D91B
102
{ACAD_REACTORS
330
D91A
102
}
330
D91A
100
AcDbXrecord
280
     1
102
MATERIAL
148
0.0
149
0.0
149
0.0
 93
        0
 94
       63
282
     0
 72
     1
 77
     1
171
     1
175
     1
179
     1
273
     0
  0
XRECORD
  5
D91D
102
{ACAD_REACTORS
330
D91C
102
}
330
D91C
100
AcDbXrecord
280
     1
102
ACAD_ROUNDTRIP_PRE2007_TABLESTYLE
 90
      512
 91
        0
  1

 92
      512
 93
        0
  2

 94
      512
 95
        0
  3

  0
ENDSEC
  0
EOF
